  0
SECTION
  2
HEADER
  9
$ACADVER
  1
AC1009
  9
$INSBASE
 10
0
 20
0
  9
$EXTMIN
 10
4130.7
 20
-1768.27296114973
  9
$EXTMAX
 10
4737.719153745998
 20
-1585.63403108111
  9
$LIMMIN
 10
4130.7
 20
-1768.27296114973
  9
$LIMMAX
 10
4737.719153745998
 20
-1585.63403108111
  9
$VIEWCTR
 10
10
 20
10
  9
$VIEWSIZE
 40
10
  9
$SNAPMODE
 70
0
  9
$SNAPUNIT
 10
1
 20
1
  9
$SNAPBASE
 10
0
 20
0
  9
$SNAPANG
 50
0
  9
$SNAPSTYLE
 70
0
  9
$SNAPISOPAIR
 70
0
  9
$GRIDMODE
 70
0
  9
$GRIDUNIT
 10
0
 20
0
  9
$ORTHOMODE
 70
0
  9
$REGENMODE
 70
1
  9
$FILLMODE
 70
1
  9
$QTEXTMODE
 70
0
  9
$DRAGMODE
 70
2
  9
$LTSCALE
 40
1
  9
$OSMODE
 70
0
  9
$ATTMODE
 70
1
  9
$TEXTSIZE
 40
3.5
  9
$TRACEWID
 40
0.5
  9
$TEXTSTYLE
  7
STANDARD
  9
$CLAYER
  8
0
  9
$CELTYPE
  6
BYLAYER
  9
$CECOLOR
 62
256
  9
$DIMSCALE
 40
1
  9
$DIMASZ
 40
0.18
  9
$DIMEXO
 40
0.0625
  9
$DIMDLI
 40
0.38
  9
$DIMRND
 40
0
  9
$DIMDLE
 40
0
  9
$DIMEXE
 40
0.18
  9
$DIMTP
 40
0
  9
$DIMTM
 40
0
  9
$DIMTXT
 40
0.18
  9
$DIMCEN
 40
0.09
  9
$DIMTSZ
 40
0
  9
$DIMTOL
 70
0
  9
$DIMLIM
 70
0
  9
$DIMTIH
 70
1
  9
$DIMTOH
 70
1
  9
$DIMSE1
 70
0
  9
$DIMSE2
 70
0
  9
$DIMTAD
 70
0
  9
$DIMZIN
 70
0
  9
$DIMBLK
  1

  9
$DIMASO
 70
1
  9
$DIMSHO
 70
1
  9
$DIMPOST
  1

  9
$DIMAPOST
  1

  9
$DIMALT
 70
0
  9
$DIMALTD
 70
2
  9
$DIMALTF
 40
25.4
  9
$DIMLFAC
 40
1
  9
$DIMTOFL
 70
0
  9
$DIMTVP
 40
0
  9
$DIMTIX
 70
0
  9
$DIMSOXD
 70
0
  9
$DIMSAH
 70
0
  9
$DIMBLK1
  1

  9
$DIMBLK2
  1

  9
$DIMSTYLE
  2
*UNNAMED
  9
$DIMCLRD
 70
0
  9
$DIMCLRE
 70
0
  9
$DIMCLRT
 70
0
  9
$DIMTFAC
 40
1
  9
$DIMGAP
 40
0.09
  9
$LUNITS
 70
2
  9
$LUPREC
 70
4
  9
$AXISMODE
 70
0
  9
$AXISUNIT
 10
0
 20
0
  9
$SKETCHINC
 40
0.1
  9
$FILLETRAD
 40
2
  9
$AUNITS
 70
0
  9
$AUPREC
 70
0
  9
$MENU
  1
ACAD
  9
$ELEVATION
 40
0
  9
$THICKNESS
 40
0
  9
$VIEWDIR
 10
0
 20
0
 30
1
  9
$LIMCHECK
 70
0
  9
$BLIPMODE
 70
1
  9
$CHAMFERA
 40
0
  9
$CHAMFERB
 40
0
  9
$FASTZOOM
 70
1
  9
$SKPOLY
 70
0
  9
$ANGBASE
 50
0
  9
$ANGDIR
 70
0
  9
$PDMODE
 70
0
  9
$PDSIZE
 40
0
  9
$PLINEWID
 40
0
  9
$COORDS
 70
2
  0
ENDSEC
  0
SECTION
  2
TABLES
  0
TABLE
  2
DIMSTYLE
 70
0
  0
ENDTAB
  0
TABLE
  2
LTYPE
 70
9
  0
LTYPE
  2
CONTINUOUS
 70
64
  3
Solid line
 72
65
 73
0
 40
0
  0
LTYPE
  2
BORDER
 70
64
  3
__ __ . __ __ .
 72
65
 73
6
 40
27.95482944882884
 49
7.987094128236812
 49
-3.993547064118406
 49
7.987094128236812
 49
-3.993547064118406
 49
0
 49
-3.993547064118406
  0
LTYPE
  2
CENTER
 70
64
  3
____ _ ____ _
 72
65
 73
4
 40
31.94837651294725
 49
19.96773532059203
 49
-3.993547064118406
 49
3.993547064118406
 49
-3.993547064118406
  0
LTYPE
  2
DASHDOT
 70
64
  3
__ . __ . __ .
 72
65
 73
4
 40
15.97418825647362
 49
7.987094128236812
 49
-3.993547064118406
 49
0
 49
-3.993547064118406
  0
LTYPE
  2
DASHED
 70
64
  3
__ __ __ __ __
 72
65
 73
2
 40
11.98064119235522
 49
7.987094128236812
 49
-3.993547064118406
  0
LTYPE
  2
DIVIDE
 70
64
  3
__ . . __ . . 
 72
65
 73
6
 40
19.96773532059203
 49
7.987094128236812
 49
-3.993547064118406
 49
0
 49
-3.993547064118406
 49
0
 49
-3.993547064118406
  0
LTYPE
  2
DOT
 70
64
  3
..............
 72
65
 73
4
 40
7.987094128236812
 49
0
 49
-3.993547064118406
 49
0
 49
-3.993547064118406
  0
LTYPE
  2
HIDDEN
 70
64
  3
_ _ _ _ _ _ _
 72
65
 73
2
 40
5.990320596177609
 49
3.993547064118406
 49
-1.996773532059203
  0
LTYPE
  2
PHANTOM
 70
64
  3
_____ _ _ _____ _ _ 
 72
65
 73
6
 40
39.93547064118406
 49
19.96773532059203
 49
-3.993547064118406
 49
3.993547064118406
 49
-3.993547064118406
 49
3.993547064118406
 49
-3.993547064118406
  0
ENDTAB
  0
TABLE
  2
LAYER
 70
3
  0
LAYER
  2
1
 70
0
 62
7
  6
CONTINUOUS
  0
LAYER
  2
0
 70
0
 62
7
  6
CONTINUOUS
  0
ENDTAB
  0
TABLE
  2
STYLE
 70
4
  0
STYLE
  2
STANDARD
 70
0
 40
0
 41
1
 50
0
 71
0
 42
3.5
  3
txt
  4

  0
STYLE
  2
SIMPLEX
 70
0
 40
0
 41
1
 50
0
 71
0
 42
3.5
  3
simplex
  4

  0
STYLE
  2
COMPLEX
 70
0
 40
0
 41
1
 50
0
 71
0
 42
3.5
  3
complex
  4

  0
STYLE
  2
ITALIC
 70
0
 40
0
 41
1
 50
0
 71
0
 42
3.5
  3
italic
  4

  0
ENDTAB
  0
TABLE
  2
VIEW
 70
0
  0
ENDTAB
  0
ENDSEC
  0
SECTION
  2
BLOCKS
  0
BLOCK
  8
0
  2
TOP__1
 70
0
 10
4455.308987627096
 20
-1105.778898040228
 30
0
  0
ARC
  8
1
 62
7
 10
4637.209576873006
 20
-1685.27296114973
 30
0
 40
72.99999999997304
 50
231.6073004275234
 51
234.6832827015987
  0
ENDBLK
  8
0
  0
ENDSEC
  0
SECTION
  2
ENTITIES
  0
LINE
  8
1
 62
7
 10
4389.109576872986
 20
-1688.77296114973
 30
0
 11
4388.430552547236
 21
-1688.77296114973
 31
0
  0
LINE
  8
1
 62
7
 10
4389.409576872989
 20
-1682.072961149718
 30
0
 11
4389.409576872989
 21
-1688.472961149731
 31
0
  0
LINE
  8
1
 62
7
 10
4388.430552547236
 20
-1681.77296114973
 30
0
 11
4389.109576872986
 21
-1681.77296114973
 31
0
  0
LINE
  8
1
 62
7
 10
4390.409576872989
 20
-1681.472961149731
 30
0
 11
4390.409576872989
 21
-1689.072961149718
 31
0
  0
LINE
  8
1
 62
7
 10
4389.409576872989
 20
-1681.472961149731
 30
0
 11
4390.409576872989
 21
-1681.472961149731
 31
0
  0
LINE
  8
1
 62
7
 10
4389.409576872989
 20
-1689.072961149718
 30
0
 11
4389.409576872989
 21
-1681.472961149731
 31
0
  0
LINE
  8
1
 62
7
 10
4390.409576872989
 20
-1689.072961149718
 30
0
 11
4389.409576872989
 21
-1689.072961149718
 31
0
  0
LINE
  8
1
 62
7
 10
4390.409576872989
 20
-1684.27296114973
 30
0
 11
4389.409576872989
 21
-1685.27296114973
 31
0
  0
LINE
  8
1
 62
7
 10
4390.409576872989
 20
-1685.27296114973
 30
0
 11
4389.409576872989
 21
-1686.27296114973
 31
0
  0
LINE
  8
1
 62
7
 10
4391.209576872999
 20
-1681.27296114973
 30
0
 11
4391.209576872999
 21
-1689.27296114973
 31
0
  0
LINE
  8
1
 62
7
 10
4390.409576872989
 20
-1681.27296114973
 30
0
 11
4391.209576872999
 21
-1681.27296114973
 31
0
  0
LINE
  8
1
 62
7
 10
4390.409576872989
 20
-1689.27296114973
 30
0
 11
4390.409576872989
 21
-1681.27296114973
 31
0
  0
LINE
  8
1
 62
7
 10
4391.209576872999
 20
-1689.27296114973
 30
0
 11
4390.409576872989
 21
-1689.27296114973
 31
0
  0
LINE
  8
1
 62
7
 10
4435.209576872999
 20
-1612.27296114973
 30
0
 11
4435.209576872999
 21
-1758.27296114973
 31
0
  0
LINE
  8
1
 62
7
 10
4453.209576872999
 20
-1758.27296114973
 30
0
 11
4417.209576872999
 21
-1758.27296114973
 31
0
  0
LINE
  8
1
 62
7
 10
4453.209576872999
 20
-1612.27296114973
 30
0
 11
4417.209576872999
 21
-1612.27296114973
 31
0
  0
LINE
  8
1
 62
7
 10
4417.209576872999
 20
-1602.27296114973
 30
0
 11
4417.209576872999
 21
-1768.27296114973
 31
0
  0
LINE
  8
1
 62
7
 10
4193.561976872999
 20
-1646.104961149721
 30
0
 11
4193.977676872989
 21
-1646.463261149721
 31
0
  0
LINE
  8
1
 62
7
 10
4192.772976872998
 20
-1647.532061149718
 30
0
 11
4221.599659853676
 21
-1672.594733097721
 31
0
  0
LINE
  8
1
 62
7
 10
4187.409576872996
 20
-1676.343352258048
 30
0
 11
4187.409576872996
 21
-1659.205761149721
 31
0
  0
LINE
  8
1
 62
7
 10
4191.884576873016
 20
-1723.188761149718
 30
0
 11
4192.554776873006
 21
-1723.199561149729
 31
0
  0
LINE
  8
1
 62
7
 10
4222.652209577488
 20
-1729.072961149718
 30
0
 11
4205.142376873008
 21
-1729.072961149718
 31
0
  0
LINE
  8
1
 62
7
 10
4240.820496873009
 20
-1697.95206114972
 30
0
 11
4269.646176872989
 21
-1723.013861149731
 31
0
  0
LINE
  8
1
 62
7
 10
4239.770796872998
 20
-1699.159661149718
 30
0
 11
4268.857176872999
 21
-1724.440961149731
 31
0
  0
LINE
  8
1
 62
7
 10
4275.009576873016
 20
-1693.689889707231
 30
0
 11
4275.009576873016
 21
-1711.340161149731
 31
0
  0
LINE
  8
1
 62
7
 10
4240.889846872996
 20
-1672.533561149721
 30
0
 11
4269.864376872988
 21
-1647.34636114972
 31
0
  0
LINE
  8
1
 62
7
 10
4239.770796872998
 20
-1671.386261149731
 30
0
 11
4268.574776872999
 21
-1646.347361149731
 31
0
  0
LINE
  8
1
 62
7
 10
4239.805451813088
 20
-1641.472961149731
 30
0
 11
4257.276776872986
 21
-1641.472961149731
 31
0
  0
LINE
  8
1
 62
7
 10
4189.809576873008
 20
-1639.27296114973
 30
0
 11
4272.609576873007
 21
-1639.27296114973
 31
0
  0
LINE
  8
1
 62
7
 10
4277.209576872999
 20
-1643.872961149729
 30
0
 11
4277.209576872999
 21
-1726.67296114972
 31
0
  0
LINE
  8
1
 62
7
 10
4272.609576873007
 20
-1731.27296114973
 30
0
 11
4189.809576873008
 21
-1731.27296114973
 31
0
  0
LINE
  8
1
 62
7
 10
4185.209576872999
 20
-1726.67296114972
 30
0
 11
4185.209576872999
 21
-1643.872961149729
 31
0
  0
LINE
  8
1
 62
7
 10
4275.009576873016
 20
-1659.205761149721
 30
0
 11
4275.009576873016
 21
-1676.88580939003
 31
0
  0
LINE
  8
1
 62
7
 10
4257.276776872986
 20
-1729.072961149718
 30
0
 11
4240.139357812069
 21
-1729.072961149718
 31
0
  0
LINE
  8
1
 62
7
 10
4187.409576872996
 20
-1711.340161149731
 30
0
 11
4187.409576872996
 21
-1693.85039203113
 31
0
  0
LINE
  8
1
 62
7
 10
4205.142376873008
 20
-1641.472961149731
 30
0
 11
4222.279795933889
 21
-1641.472961149731
 31
0
  0
LINE
  8
1
 62
7
 10
4187.907276872988
 20
-1643.718161149739
 30
0
 11
4187.907276872988
 21
-1644.333161149741
 31
0
  0
LINE
  8
1
 62
7
 10
4190.264776873016
 20
-1641.975661149739
 30
0
 11
4189.649776872996
 21
-1641.975661149739
 31
0
  0
LINE
  8
1
 62
7
 10
4192.007276873009
 20
-1644.333161149741
 30
0
 11
4192.007276873009
 21
-1643.718161149739
 31
0
  0
LINE
  8
1
 62
7
 10
4189.649776872996
 20
-1646.075661149741
 30
0
 11
4190.264776873016
 21
-1646.075661149741
 31
0
  0
LINE
  8
1
 62
7
 10
4191.918176872979
 20
-1647.432261149729
 30
0
 11
4191.165676873005
 21
-1647.681061149742
 31
0
  0
LINE
  8
1
 62
7
 10
4193.723076872989
 20
-1644.826061149731
 30
0
 11
4193.380800459438
 21
-1644.753319210339
 31
0
  0
LINE
  8
1
 62
7
 10
4274.511876873005
 20
-1726.827761149728
 30
0
 11
4274.511876873005
 21
-1726.212761149741
 31
0
  0
LINE
  8
1
 62
7
 10
4272.154376872996
 20
-1728.570261149728
 30
0
 11
4272.769376873016
 21
-1728.570261149728
 31
0
  0
LINE
  8
1
 62
7
 10
4270.411876872989
 20
-1726.212761149741
 30
0
 11
4270.411876872989
 21
-1726.827761149728
 31
0
  0
LINE
  8
1
 62
7
 10
4272.769376873016
 20
-1724.470261149729
 30
0
 11
4272.154376872996
 21
-1724.470261149729
 31
0
  0
LINE
  8
1
 62
7
 10
4187.909576872996
 20
-1726.215461149731
 30
0
 11
4187.909576872996
 21
-1726.830461149718
 31
0
  0
LINE
  8
1
 62
7
 10
4190.267076873009
 20
-1724.47296114973
 30
0
 11
4189.652076872989
 21
-1724.47296114973
 31
0
  0
LINE
  8
1
 62
7
 10
4192.009576873016
 20
-1726.830461149718
 30
0
 11
4192.009576873016
 21
-1726.215461149731
 31
0
  0
LINE
  8
1
 62
7
 10
4189.652076872989
 20
-1728.572961149718
 30
0
 11
4190.267076873009
 21
-1728.572961149718
 31
0
  0
LINE
  8
1
 62
7
 10
4193.605976872978
 20
-1725.055261149729
 30
0
 11
4193.747576872996
 21
-1725.834961149728
 31
0
  0
LINE
  8
1
 62
7
 10
4274.509576873016
 20
-1644.330461149718
 30
0
 11
4274.509576873016
 21
-1643.715461149731
 31
0
  0
LINE
  8
1
 62
7
 10
4272.152076872989
 20
-1646.072961149718
 30
0
 11
4272.767076873009
 21
-1646.072961149718
 31
0
  0
LINE
  8
1
 62
7
 10
4270.409576872996
 20
-1643.715461149731
 30
0
 11
4270.409576872996
 21
-1644.330461149718
 31
0
  0
LINE
  8
1
 62
7
 10
4272.767076873009
 20
-1641.972961149731
 30
0
 11
4272.152076872989
 21
-1641.972961149731
 31
0
  0
LINE
  8
1
 62
7
 10
4193.844376872999
 20
-1724.198561149721
 30
0
 11
4222.648356872996
 21
-1699.159661149718
 31
0
  0
LINE
  8
1
 62
7
 10
4192.554776873006
 20
-1723.199561149729
 30
0
 11
4221.598656872989
 21
-1697.95206114972
 31
0
  0
LINE
  8
1
 62
7
 10
4222.648356872996
 20
-1671.386261149731
 30
0
 11
4193.977676872989
 21
-1646.463261149721
 31
0
  0
LINE
  8
1
 62
7
 10
4270.500976873019
 20
-1723.11366114972
 30
0
 11
4271.253476872988
 21
-1722.864861149729
 31
0
  0
LINE
  8
1
 62
7
 10
4268.696076872998
 20
-1725.719861149718
 30
0
 11
4269.038353286555
 21
-1725.792603089131
 31
0
  0
LINE
  8
1
 62
7
 10
4268.857176872999
 20
-1724.440961149731
 30
0
 11
4268.599976872988
 21
-1724.217361149719
 31
0
  0
LINE
  8
1
 62
7
 10
4268.813176873015
 20
-1645.49066114972
 30
0
 11
4268.671576872998
 21
-1644.710961149721
 31
0
  0
LINE
  8
1
 62
7
 10
4270.534576872996
 20
-1647.357161149731
 30
0
 11
4270.709581673807
 21
-1647.054052834711
 31
0
  0
LINE
  8
1
 62
3
  6
DASHDOT
 10
4517.209576872999
 20
-1685.27296114973
 30
0
 11
4514.209576872999
 21
-1685.27296114973
 31
0
  0
LINE
  8
1
 62
7
 10
4391.209576872999
 20
-1624.6172082886
 30
0
 11
4391.209576872999
 21
-1610.27296114973
 31
0
  0
LINE
  8
1
 62
3
  6
DASHDOT
 10
4391.209576872999
 20
-1616.272961149741
 30
0
 11
4384.109576872986
 21
-1616.272961149741
 31
0
  0
LINE
  8
1
 62
7
 10
4389.109576872986
 20
-1619.772961149741
 30
0
 11
4388.430552547236
 21
-1619.772961149741
 31
0
  0
LINE
  8
1
 62
7
 10
4389.409576872989
 20
-1613.072961149729
 30
0
 11
4389.409576872989
 21
-1619.472961149731
 31
0
  0
LINE
  8
1
 62
7
 10
4388.430552547236
 20
-1612.772961149741
 30
0
 11
4389.109576872986
 21
-1612.772961149741
 31
0
  0
LINE
  8
1
 62
7
 10
4390.409576872989
 20
-1612.472961149731
 30
0
 11
4390.409576872989
 21
-1620.072961149729
 31
0
  0
LINE
  8
1
 62
7
 10
4389.409576872989
 20
-1612.472961149731
 30
0
 11
4390.409576872989
 21
-1612.472961149731
 31
0
  0
LINE
  8
1
 62
7
 10
4389.409576872989
 20
-1620.072961149729
 30
0
 11
4389.409576872989
 21
-1612.472961149731
 31
0
  0
LINE
  8
1
 62
7
 10
4390.409576872989
 20
-1620.072961149729
 30
0
 11
4389.409576872989
 21
-1620.072961149729
 31
0
  0
LINE
  8
1
 62
7
 10
4390.409576872989
 20
-1615.272961149741
 30
0
 11
4389.409576872989
 21
-1616.272961149741
 31
0
  0
LINE
  8
1
 62
7
 10
4390.409576872989
 20
-1616.272961149741
 30
0
 11
4389.409576872989
 21
-1617.272961149741
 31
0
  0
LINE
  8
1
 62
7
 10
4391.209576872999
 20
-1612.272961149741
 30
0
 11
4391.209576872999
 21
-1620.272961149741
 31
0
  0
LINE
  8
1
 62
7
 10
4390.409576872989
 20
-1612.272961149741
 30
0
 11
4391.209576872999
 21
-1612.272961149741
 31
0
  0
LINE
  8
1
 62
7
 10
4390.409576872989
 20
-1620.272961149741
 30
0
 11
4390.409576872989
 21
-1612.272961149741
 31
0
  0
LINE
  8
1
 62
7
 10
4391.209576872999
 20
-1620.272961149741
 30
0
 11
4390.409576872989
 21
-1620.272961149741
 31
0
  0
LINE
  8
1
 62
7
 10
4389.109576872986
 20
-1757.77296114973
 30
0
 11
4388.430552547236
 21
-1757.77296114973
 31
0
  0
LINE
  8
1
 62
7
 10
4389.409576872989
 20
-1751.072961149718
 30
0
 11
4389.409576872989
 21
-1757.47296114973
 31
0
  0
LINE
  8
1
 62
7
 10
4388.430552547236
 20
-1750.77296114973
 30
0
 11
4389.109576872986
 21
-1750.77296114973
 31
0
  0
LINE
  8
1
 62
7
 10
4390.409576872989
 20
-1750.47296114973
 30
0
 11
4390.409576872989
 21
-1758.072961149718
 31
0
  0
LINE
  8
1
 62
7
 10
4389.409576872989
 20
-1750.47296114973
 30
0
 11
4390.409576872989
 21
-1750.47296114973
 31
0
  0
LINE
  8
1
 62
7
 10
4389.409576872989
 20
-1758.072961149718
 30
0
 11
4389.409576872989
 21
-1750.47296114973
 31
0
  0
LINE
  8
1
 62
7
 10
4390.409576872989
 20
-1758.072961149718
 30
0
 11
4389.409576872989
 21
-1758.072961149718
 31
0
  0
LINE
  8
1
 62
7
 10
4390.409576872989
 20
-1753.27296114973
 30
0
 11
4389.409576872989
 21
-1754.27296114973
 31
0
  0
LINE
  8
1
 62
7
 10
4390.409576872989
 20
-1754.27296114973
 30
0
 11
4389.409576872989
 21
-1755.27296114973
 31
0
  0
LINE
  8
1
 62
7
 10
4391.209576872999
 20
-1750.27296114973
 30
0
 11
4391.209576872999
 21
-1758.27296114973
 31
0
  0
LINE
  8
1
 62
7
 10
4390.409576872989
 20
-1750.27296114973
 30
0
 11
4391.209576872999
 21
-1750.27296114973
 31
0
  0
LINE
  8
1
 62
7
 10
4390.409576872989
 20
-1758.27296114973
 30
0
 11
4390.409576872989
 21
-1750.27296114973
 31
0
  0
LINE
  8
1
 62
7
 10
4391.209576872999
 20
-1758.27296114973
 30
0
 11
4390.409576872989
 21
-1758.27296114973
 31
0
  0
LINE
  8
1
 62
3
  6
DASHDOT
 10
4391.209576872999
 20
-1616.272961149741
 30
0
 11
4388.468528084587
 21
-1616.272961149741
 31
0
  0
LINE
  8
1
 62
7
 10
4391.209576872999
 20
-1760.27296114973
 30
0
 11
4391.209576872999
 21
-1624.6172082886
 31
0
  0
LINE
  8
1
 62
3
  6
DASHDOT
 10
4384.613577559888
 20
-1754.27296114973
 30
0
 11
4391.209576872999
 21
-1754.27296114973
 31
0
  0
LINE
  8
1
 62
7
 10
4630.709576872999
 20
-1681.531303762931
 30
0
 11
4630.709576872999
 21
-1689.0146185365
 31
0
  0
LINE
  8
1
 62
7
 10
4640.951234259798
 20
-1678.77296114973
 30
0
 11
4633.467919486196
 21
-1678.77296114973
 31
0
  0
LINE
  8
1
 62
7
 10
4635.709576872999
 20
-1695.771430378081
 30
0
 11
4633.839576872996
 21
-1695.771430378081
 31
0
  0
LINE
  8
1
 62
7
 10
4635.709576872999
 20
-1692.621430378068
 30
0
 11
4635.709576872999
 21
-1695.771430378081
 31
0
  0
LINE
  8
1
 62
7
 10
4638.709576872999
 20
-1695.771430378081
 30
0
 11
4640.579576873009
 21
-1695.771430378081
 31
0
  0
LINE
  8
1
 62
7
 10
4638.709576872999
 20
-1692.621430378068
 30
0
 11
4638.709576872999
 21
-1695.771430378081
 31
0
  0
LINE
  8
1
 62
7
 10
4632.139576873017
 20
-1694.07143037808
 30
0
 11
4632.139576873017
 21
-1693.005384312778
 31
0
  0
LINE
  8
1
 62
7
 10
4642.279576873006
 20
-1694.07143037808
 30
0
 11
4642.279576873006
 21
-1693.005384312778
 31
0
  0
LINE
  8
1
 62
7
 10
4514.209576872999
 20
-1678.77296114973
 30
0
 11
4514.209576872999
 21
-1685.27296114973
 31
0
  0
LINE
  8
1
 62
3
 10
4494.209576872999
 20
-1681.531303762931
 30
0
 11
4514.209576872999
 21
-1689.0146185365
 31
0
  0
LINE
  8
1
 62
3
 10
4514.209576872999
 20
-1681.531303762931
 30
0
 11
4494.209576872999
 21
-1689.0146185365
 31
0
  0
LINE
  8
1
 62
7
 10
4514.209576872999
 20
-1689.0146185365
 30
0
 11
4494.209576872999
 21
-1689.0146185365
 31
0
  0
LINE
  8
1
 62
7
 10
4494.209576872999
 20
-1681.531303762931
 30
0
 11
4494.209576872999
 21
-1689.0146185365
 31
0
  0
LINE
  8
1
 62
7
 10
4514.209576872999
 20
-1681.531303762931
 30
0
 11
4494.209576872999
 21
-1681.531303762931
 31
0
  0
LINE
  8
1
 62
7
 10
4514.209576872999
 20
-1678.77296114973
 30
0
 11
4494.209576872999
 21
-1678.77296114973
 31
0
  0
LINE
  8
1
 62
7
 10
4494.209576872999
 20
-1677.77296114973
 30
0
 11
4494.209576872999
 21
-1678.77296114973
 31
0
  0
LINE
  8
1
 62
7
 10
4494.209576872999
 20
-1677.77296114973
 30
0
 11
4471.209576872999
 21
-1677.77296114973
 31
0
  0
LINE
  8
1
 62
7
 10
4514.209576872999
 20
-1685.27296114973
 30
0
 11
4514.209576872999
 21
-1692.77296114973
 31
0
  0
LINE
  8
1
 62
7
 10
4471.209576872999
 20
-1692.77296114973
 30
0
 11
4514.209576872999
 21
-1692.77296114973
 31
0
  0
LINE
  8
1
 62
7
 10
4470.209576872999
 20
-1664.27296114973
 30
0
 11
4470.209576872999
 21
-1706.27296114973
 31
0
  0
LINE
  8
1
 62
7
 10
4471.209576872999
 20
-1705.27296114973
 30
0
 11
4470.209576872999
 21
-1706.27296114973
 31
0
  0
LINE
  8
1
 62
7
 10
4470.209576872999
 20
-1664.27296114973
 30
0
 11
4471.209576872999
 21
-1665.27296114973
 31
0
  0
LINE
  8
1
 62
7
 10
4470.209576872999
 20
-1706.27296114973
 30
0
 11
4465.209576872999
 21
-1706.27296114973
 31
0
  0
LINE
  8
1
 62
7
 10
4471.209576872999
 20
-1665.27296114973
 30
0
 11
4471.209576872999
 21
-1705.27296114973
 31
0
  0
LINE
  8
1
 62
7
 10
4465.209576872999
 20
-1664.27296114973
 30
0
 11
4470.209576872999
 21
-1664.27296114973
 31
0
  0
LINE
  8
1
 62
7
 10
4465.209576872999
 20
-1612.27296114973
 30
0
 11
4453.209576872999
 21
-1612.27296114973
 31
0
  0
LINE
  8
1
 62
7
 10
4465.209576872999
 20
-1758.27296114973
 30
0
 11
4465.209576872999
 21
-1612.27296114973
 31
0
  0
LINE
  8
1
 62
7
 10
4453.209576872999
 20
-1758.27296114973
 30
0
 11
4465.209576872999
 21
-1758.27296114973
 31
0
  0
LINE
  8
1
 62
7
 10
4231.517076873009
 20
-1614.222961149731
 30
0
 11
4230.902076872989
 21
-1614.222961149731
 31
0
  0
LINE
  8
1
 62
7
 10
4229.159576872996
 20
-1615.965461149731
 30
0
 11
4229.159576872996
 21
-1616.580461149718
 31
0
  0
LINE
  8
1
 62
7
 10
4230.902076872989
 20
-1618.322961149718
 30
0
 11
4231.517076873009
 21
-1618.322961149718
 31
0
  0
LINE
  8
1
 62
7
 10
4233.259576873016
 20
-1616.580461149718
 30
0
 11
4233.259576873016
 21
-1615.965461149731
 31
0
  0
LINE
  8
1
 62
7
 10
4160.159576872996
 20
-1684.965461149731
 30
0
 11
4160.159576872996
 21
-1685.58046114974
 31
0
  0
LINE
  8
1
 62
7
 10
4161.902076872989
 20
-1687.322961149729
 30
0
 11
4162.517076873009
 21
-1687.322961149729
 31
0
  0
LINE
  8
1
 62
7
 10
4164.259576872987
 20
-1685.58046114974
 30
0
 11
4164.259576872987
 21
-1684.965461149731
 31
0
  0
LINE
  8
1
 62
7
 10
4162.517076873009
 20
-1683.222961149731
 30
0
 11
4161.902076872989
 21
-1683.222961149731
 31
0
  0
LINE
  8
1
 62
7
 10
4230.902076872989
 20
-1756.322961149718
 30
0
 11
4231.517076873009
 21
-1756.322961149718
 31
0
  0
LINE
  8
1
 62
7
 10
4233.259576873016
 20
-1754.580461149718
 30
0
 11
4233.259576873016
 21
-1753.965461149731
 31
0
  0
LINE
  8
1
 62
7
 10
4231.517076873009
 20
-1752.22296114973
 30
0
 11
4230.902076872989
 21
-1752.22296114973
 31
0
  0
LINE
  8
1
 62
7
 10
4229.159576872996
 20
-1753.965461149731
 30
0
 11
4229.159576872996
 21
-1754.580461149718
 31
0
  0
LINE
  8
1
 62
7
 10
4302.259576873016
 20
-1685.58046114974
 30
0
 11
4302.259576873016
 21
-1684.965461149731
 31
0
  0
LINE
  8
1
 62
7
 10
4300.517076873009
 20
-1683.222961149731
 30
0
 11
4299.902076873007
 21
-1683.222961149731
 31
0
  0
LINE
  8
1
 62
7
 10
4298.159576872996
 20
-1684.965461149731
 30
0
 11
4298.159576872996
 21
-1685.58046114974
 31
0
  0
LINE
  8
1
 62
7
 10
4299.902076873007
 20
-1687.322961149729
 30
0
 11
4300.517076873009
 21
-1687.322961149729
 31
0
  0
LINE
  8
1
 62
7
 10
4417.209576872999
 20
-1602.27296114973
 30
0
 11
4399.209576872999
 21
-1602.27296114973
 31
0
  0
LINE
  8
1
 62
7
 10
4399.209576872999
 20
-1768.27296114973
 30
0
 11
4417.209576872999
 21
-1768.27296114973
 31
0
  0
LINE
  8
1
 62
7
 10
4455.209576872999
 20
-1612.27296114973
 30
0
 11
4455.209576872999
 21
-1758.27296114973
 31
0
  0
LINE
  8
1
 62
3
 10
4429.319576872996
 20
-1603.58011860376
 30
0
 11
4429.319576872996
 21
-1600.58011860376
 31
0
  0
LINE
  8
1
 62
3
 10
4430.099576872998
 20
-1600.58011860376
 30
0
 11
4430.099576872998
 21
-1603.58011860376
 31
0
  0
LINE
  8
1
 62
3
 10
4429.709576872999
 20
-1600.58011860376
 30
0
 11
4429.709576872999
 21
-1603.58011860376
 31
0
  0
LINE
  8
1
 62
7
 10
4430.579576872998
 20
-1603.58011860376
 30
0
 11
4428.839576872996
 21
-1603.58011860376
 31
0
  0
LINE
  8
1
 62
7
 10
4430.579576872998
 20
-1612.27296114973
 30
0
 11
4430.579576872998
 21
-1603.58011860376
 31
0
  0
LINE
  8
1
 62
7
 10
4428.839576872996
 20
-1603.58011860376
 30
0
 11
4428.839576872996
 21
-1612.27296114973
 31
0
  0
LINE
  8
1
 62
3
 10
4682.978093577897
 20
-1606.816656499209
 30
0
 11
4684.478093577897
 21
-1604.218580287851
 31
0
  0
LINE
  8
1
 62
3
 10
4685.153593392845
 20
-1604.608580287869
 30
0
 11
4683.653593392845
 21
-1607.206656499201
 31
0
  0
LINE
  8
1
 62
3
 10
4683.767896899636
 20
-1603.808677025779
 30
0
 11
4682.267896899636
 21
-1606.406753237129
 31
0
  0
LINE
  8
1
 62
3
 10
4681.592397084677
 20
-1606.01675323713
 30
0
 11
4683.092397084677
 21
-1603.41867702578
 31
0
  0
LINE
  8
1
 62
3
 10
4683.315843485368
 20
-1607.01165649922
 30
0
 11
4684.815843485368
 21
-1604.413580287851
 31
0
  0
LINE
  8
1
 62
3
 10
4681.930146992158
 20
-1606.21175323713
 30
0
 11
4683.430146992158
 21
-1603.613677025761
 31
0
  0
LINE
  8
1
 62
7
 10
4682.622995238769
 20
-1606.61170486818
 30
0
 11
4684.129886771257
 21
-1607.481692172281
 31
0
  0
LINE
  8
1
 62
7
 10
4681.116103706277
 20
-1605.741717564069
 30
0
 11
4682.622995238769
 21
-1606.61170486818
 31
0
  0
LINE
  8
1
 62
7
 10
4675.204977546217
 20
-1622.940389185448
 30
0
 11
4684.129886771257
 21
-1607.481692172281
 31
0
  0
LINE
  8
1
 62
7
 10
4681.116103706277
 20
-1605.741717564069
 30
0
 11
4672.191178056356
 21
-1621.200443026518
 31
0
  0
LINE
  8
1
 62
7
 10
4682.622995238769
 20
-1606.61170486818
 30
0
 11
4673.708447616208
 21
-1622.052454710199
 31
0
  0
LINE
  8
1
 62
3
  6
DASHDOT
 10
4637.209576872999
 20
-1686.77296114973
 30
0
 11
4637.209576872999
 21
-1683.77296114973
 31
0
  0
LINE
  8
1
 62
3
  6
DASHDOT
 10
4638.709576872999
 20
-1685.27296114973
 30
0
 11
4635.709576872999
 21
-1685.27296114973
 31
0
  0
LINE
  8
1
 62
7
 10
4189.710779094506
 20
-1613.392158546127
 30
0
 11
4185.796158507229
 21
-1606.61170486818
 31
0
  0
LINE
  8
1
 62
7
 10
4191.226797995702
 20
-1612.537980615962
 30
0
 11
4187.303103446438
 21
-1605.741810069022
 31
0
  0
LINE
  8
1
 62
7
 10
4185.796158507229
 20
-1606.61170486818
 30
0
 11
4187.303103446438
 21
-1605.741810069022
 31
0
  0
LINE
  8
1
 62
7
 10
4184.289213568021
 20
-1607.481599667338
 30
0
 11
4185.796158507229
 21
-1606.61170486818
 31
0
  0
LINE
  8
1
 62
7
 10
4184.289213568021
 20
-1607.481599667338
 30
0
 11
4188.21300048567
 21
-1614.277930204128
 31
0
  0
LINE
  8
1
 62
3
 10
4184.989006753839
 20
-1603.613677025769
 30
0
 11
4186.489006753839
 21
-1606.21175323713
 31
0
  0
LINE
  8
1
 62
3
 10
4183.603310260619
 20
-1604.413580287859
 30
0
 11
4185.103310260619
 21
-1607.01165649922
 31
0
  0
LINE
  8
1
 62
3
 10
4185.32675666131
 20
-1603.41867702578
 30
0
 11
4186.82675666131
 21
-1606.01675323713
 31
0
  0
LINE
  8
1
 62
3
 10
4186.151256846362
 20
-1606.40675323713
 30
0
 11
4184.651256846362
 21
-1603.808677025779
 31
0
  0
LINE
  8
1
 62
3
 10
4184.765560353149
 20
-1607.206656499209
 30
0
 11
4183.265560353149
 21
-1604.608580287869
 31
0
  0
LINE
  8
1
 62
3
 10
4183.9410601681
 20
-1604.218580287859
 30
0
 11
4185.4410601681
 21
-1606.816656499209
 31
0
  0
LINE
  8
1
 62
3
  6
DASHDOT
 10
4350.951376872999
 20
-1726.52296114973
 30
0
 11
4391.209576872999
 21
-1726.52296114973
 31
0
  0
LINE
  8
1
 62
7
 10
4368.809576872968
 20
-1639.27296114973
 30
0
 11
4364.466626872977
 21
-1639.27296114973
 31
0
  0
LINE
  8
1
 62
3
  6
DASHDOT
 10
4391.209576872999
 20
-1644.02296114973
 30
0
 11
4350.951376872999
 21
-1644.02296114973
 31
0
  0
LINE
  8
1
 62
7
 10
4359.209576872977
 20
-1641.472961149731
 30
0
 11
4359.209576872977
 21
-1729.072961149718
 31
0
  0
LINE
  8
1
 62
7
 10
4368.809576872968
 20
-1715.230661149729
 30
0
 11
4368.700281092028
 21
-1715.298061149729
 31
0
  0
LINE
  8
1
 62
7
 10
4382.636276872977
 20
-1716.61916114973
 30
0
 11
4379.209576872977
 21
-1715.230661149729
 31
0
  0
LINE
  8
1
 62
3
  6
DASHED
 10
4379.209576872977
 20
-1731.27296114973
 30
0
 11
4379.214976872979
 21
-1731.27296114973
 31
0
  0
LINE
  8
1
 62
3
  6
DASHED
 10
4379.214976872979
 20
-1731.27296114973
 30
0
 11
4379.258076872967
 21
-1731.27296114973
 31
0
  0
LINE
  8
1
 62
7
 10
4386.209576872977
 20
-1704.868861149719
 30
0
 11
4385.818376872979
 21
-1704.29136114972
 31
0
  0
LINE
  8
1
 62
7
 10
4385.818376872979
 20
-1704.29136114972
 30
0
 11
4385.072276872967
 21
-1703.145661149741
 31
0
  0
LINE
  8
1
 62
7
 10
4385.072276872967
 20
-1703.145661149741
 30
0
 11
4384.373576872967
 21
-1702.011761149729
 31
0
  0
LINE
  8
1
 62
7
 10
4384.373576872967
 20
-1702.011761149729
 30
0
 11
4384.041776872967
 21
-1701.44896114974
 31
0
  0
LINE
  8
1
 62
7
 10
4384.041776872967
 20
-1701.44896114974
 30
0
 11
4383.721576872987
 21
-1700.88876114973
 31
0
  0
LINE
  8
1
 62
7
 10
4383.721576872987
 20
-1700.88876114973
 30
0
 11
4383.115576872987
 21
-1699.775561149741
 31
0
  0
LINE
  8
1
 62
7
 10
4383.115576872987
 20
-1699.775561149741
 30
0
 11
4382.554776872977
 21
-1698.671361149728
 31
0
  0
LINE
  8
1
 62
7
 10
4382.554776872977
 20
-1698.671361149728
 30
0
 11
4382.038776872977
 21
-1697.575261149719
 31
0
  0
LINE
  8
1
 62
7
 10
4382.038776872977
 20
-1697.575261149719
 30
0
 11
4381.566876872988
 21
-1696.48636114972
 31
0
  0
LINE
  8
1
 62
7
 10
4381.566876872988
 20
-1696.48636114972
 30
0
 11
4381.138776872977
 21
-1695.403861149719
 31
0
  0
LINE
  8
1
 62
7
 10
4381.138776872977
 20
-1695.403861149719
 30
0
 11
4380.940976872967
 21
-1694.864621149728
 31
0
  0
LINE
  8
1
 62
7
 10
4380.940976872967
 20
-1694.864621149728
 30
0
 11
4380.753976872976
 21
-1694.326701149719
 31
0
  0
LINE
  8
1
 62
7
 10
4380.753976872976
 20
-1694.326701149719
 30
0
 11
4380.412276872979
 21
-1693.25420114972
 31
0
  0
LINE
  8
1
 62
7
 10
4380.412276872979
 20
-1693.25420114972
 30
0
 11
4380.113376872977
 21
-1692.185471149721
 31
0
  0
LINE
  8
1
 62
7
 10
4380.113376872977
 20
-1692.185471149721
 30
0
 11
4379.857176872966
 21
-1691.119691149731
 31
0
  0
LINE
  8
1
 62
7
 10
4379.857176872966
 20
-1691.119691149731
 30
0
 11
4379.643576872978
 21
-1690.056001149721
 31
0
  0
LINE
  8
1
 62
7
 10
4379.643576872978
 20
-1690.056001149721
 30
0
 11
4379.472476872978
 21
-1688.993581149741
 31
0
  0
LINE
  8
1
 62
7
 10
4379.472476872978
 20
-1688.993581149741
 30
0
 11
4379.402876872998
 21
-1688.46259114972
 31
0
  0
LINE
  8
1
 62
7
 10
4379.402876872998
 20
-1688.46259114972
 30
0
 11
4379.343876872968
 21
-1687.931591149728
 31
0
  0
LINE
  8
1
 62
7
 10
4379.343876872968
 20
-1687.931591149728
 30
0
 11
4379.258076872967
 21
-1686.869191149718
 31
0
  0
LINE
  8
1
 62
3
  6
DASHED
 10
4379.258076872967
 20
-1686.869191149718
 30
0
 11
4379.214976872979
 21
-1685.805531149719
 31
0
  0
LINE
  8
1
 62
7
 10
4379.214976872979
 20
-1685.805531149719
 30
0
 11
4379.209576872977
 21
-1685.27296114973
 31
0
  0
LINE
  8
1
 62
7
 10
4368.809576872968
 20
-1731.27296114973
 30
0
 11
4368.809576872968
 21
-1730.022461149728
 31
0
  0
LINE
  8
1
 62
7
 10
4379.209576872977
 20
-1731.27296114973
 30
0
 11
4379.209576872977
 21
-1730.022461149728
 31
0
  0
LINE
  8
1
 62
7
 10
4379.375876872967
 20
-1715.298061149729
 30
0
 11
4368.700316872978
 21
-1715.298061149729
 31
0
  0
LINE
  8
1
 62
7
 10
4364.209576872977
 20
-1718.066661149721
 30
0
 11
4364.983886872978
 21
-1717.589361149719
 31
0
  0
LINE
  8
1
 62
7
 10
4366.500856872967
 20
-1716.65426114972
 30
0
 11
4368.700316872978
 21
-1715.298061149729
 31
0
  0
LINE
  8
1
 62
7
 10
4379.375876872967
 20
-1715.298061149729
 30
0
 11
4380.476476872987
 21
-1715.744061149718
 31
0
  0
LINE
  8
1
 62
7
 10
4380.476476872987
 20
-1715.744061149718
 30
0
 11
4382.722876872968
 21
-1716.65426114972
 31
0
  0
LINE
  8
1
 62
7
 10
4382.722876872968
 20
-1716.65426114972
 30
0
 11
4386.209576872977
 21
-1718.066661149721
 31
0
  0
LINE
  8
1
 62
7
 10
4386.209576872977
 20
-1724.048061149729
 30
0
 11
4364.209576872977
 21
-1724.048061149729
 31
0
  0
LINE
  8
1
 62
7
 10
4364.209576872977
 20
-1704.868861149719
 30
0
 11
4364.466626872977
 21
-1704.29136114972
 31
0
  0
LINE
  8
1
 62
7
 10
4364.466626872977
 20
-1704.29136114972
 30
0
 11
4364.956956872978
 21
-1703.145661149741
 31
0
  0
LINE
  8
1
 62
7
 10
4364.956956872978
 20
-1703.145661149741
 30
0
 11
4365.416076872977
 21
-1702.011761149729
 31
0
  0
LINE
  8
1
 62
7
 10
4365.416076872977
 20
-1702.011761149729
 30
0
 11
4365.634106872966
 21
-1701.44896114974
 31
0
  0
LINE
  8
1
 62
7
 10
4365.634106872966
 20
-1701.44896114974
 30
0
 11
4365.844526872977
 21
-1700.88876114973
 31
0
  0
LINE
  8
1
 62
7
 10
4365.844526872977
 20
-1700.88876114973
 30
0
 11
4366.242776872968
 21
-1699.775561149741
 31
0
  0
LINE
  8
1
 62
7
 10
4366.242776872968
 20
-1699.775561149741
 30
0
 11
4366.611276872986
 21
-1698.671361149728
 31
0
  0
LINE
  8
1
 62
7
 10
4366.611276872986
 20
-1698.671361149728
 30
0
 11
4366.950406872976
 21
-1697.575261149719
 31
0
  0
LINE
  8
1
 62
7
 10
4366.950406872976
 20
-1697.575261149719
 30
0
 11
4367.260496872978
 21
-1696.48636114972
 31
0
  0
LINE
  8
1
 62
7
 10
4367.260496872978
 20
-1696.48636114972
 30
0
 11
4367.541836872976
 21
-1695.403861149719
 31
0
  0
LINE
  8
1
 62
7
 10
4367.541836872976
 20
-1695.403861149719
 30
0
 11
4367.671816872978
 21
-1694.864621149728
 31
0
  0
LINE
  8
1
 62
7
 10
4367.671816872978
 20
-1694.864621149728
 30
0
 11
4367.794686872977
 21
-1694.326701149719
 31
0
  0
LINE
  8
1
 62
7
 10
4367.794686872977
 20
-1694.326701149719
 30
0
 11
4368.019226872976
 21
-1693.25420114972
 31
0
  0
LINE
  8
1
 62
7
 10
4368.019226872976
 20
-1693.25420114972
 30
0
 11
4368.215626872977
 21
-1692.185471149721
 31
0
  0
LINE
  8
1
 62
7
 10
4368.215626872977
 20
-1692.185471149721
 30
0
 11
4368.383986872977
 21
-1691.119691149731
 31
0
  0
LINE
  8
1
 62
7
 10
4368.383986872977
 20
-1691.119691149731
 30
0
 11
4368.524376872977
 21
-1690.056001149721
 31
0
  0
LINE
  8
1
 62
7
 10
4368.524376872977
 20
-1690.056001149721
 30
0
 11
4368.636816872967
 21
-1688.993581149741
 31
0
  0
LINE
  8
1
 62
7
 10
4368.636816872967
 20
-1688.993581149741
 30
0
 11
4368.682556872968
 21
-1688.46259114972
 31
0
  0
LINE
  8
1
 62
7
 10
4368.809576872968
 20
-1731.27296114973
 30
0
 11
4368.806026872967
 21
-1731.27296114973
 31
0
  0
LINE
  8
1
 62
7
 10
4368.806026872967
 20
-1731.27296114973
 30
0
 11
4368.777736872976
 21
-1731.27296114973
 31
0
  0
LINE
  8
1
 62
7
 10
4368.777736872976
 20
-1731.27296114973
 30
0
 11
4364.209576872977
 21
-1731.27296114973
 31
0
  0
LINE
  8
1
 62
7
 10
4368.809576872968
 20
-1715.298061149729
 30
0
 11
4368.809576872968
 21
-1655.31526114972
 31
0
  0
LINE
  8
1
 62
7
 10
4379.209576872977
 20
-1655.31526114972
 30
0
 11
4368.809576872968
 21
-1655.31526114972
 31
0
  0
LINE
  8
1
 62
7
 10
4379.209576872977
 20
-1715.298061149729
 30
0
 11
4379.209576872977
 21
-1655.31526114972
 31
0
  0
LINE
  8
1
 62
7
 10
4379.343876872968
 20
-1687.931591149728
 30
0
 11
4379.402876872998
 21
-1688.46259114972
 31
0
  0
LINE
  8
1
 62
7
 10
4379.402876872998
 20
-1688.46259114972
 30
0
 11
4379.472476872978
 21
-1688.993581149741
 31
0
  0
LINE
  8
1
 62
7
 10
4379.472476872978
 20
-1688.993581149741
 30
0
 11
4379.643576872978
 21
-1690.056001149721
 31
0
  0
LINE
  8
1
 62
7
 10
4379.643576872978
 20
-1690.056001149721
 30
0
 11
4379.857176872966
 21
-1691.119691149731
 31
0
  0
LINE
  8
1
 62
7
 10
4379.857176872966
 20
-1691.119691149731
 30
0
 11
4380.113376872977
 21
-1692.185471149721
 31
0
  0
LINE
  8
1
 62
7
 10
4380.113376872977
 20
-1692.185471149721
 30
0
 11
4380.412276872979
 21
-1693.25420114972
 31
0
  0
LINE
  8
1
 62
7
 10
4380.412276872979
 20
-1693.25420114972
 30
0
 11
4380.753976872976
 21
-1694.326701149719
 31
0
  0
LINE
  8
1
 62
7
 10
4380.753976872976
 20
-1694.326701149719
 30
0
 11
4380.940976872967
 21
-1694.864621149728
 31
0
  0
LINE
  8
1
 62
7
 10
4380.940976872967
 20
-1694.864621149728
 30
0
 11
4381.138776872977
 21
-1695.403861149719
 31
0
  0
LINE
  8
1
 62
7
 10
4381.138776872977
 20
-1695.403861149719
 30
0
 11
4381.566876872988
 21
-1696.48636114972
 31
0
  0
LINE
  8
1
 62
7
 10
4381.566876872988
 20
-1696.48636114972
 30
0
 11
4382.038776872977
 21
-1697.575261149719
 31
0
  0
LINE
  8
1
 62
7
 10
4382.038776872977
 20
-1697.575261149719
 30
0
 11
4382.554776872977
 21
-1698.671361149728
 31
0
  0
LINE
  8
1
 62
7
 10
4382.554776872977
 20
-1698.671361149728
 30
0
 11
4383.115576872987
 21
-1699.775561149741
 31
0
  0
LINE
  8
1
 62
7
 10
4383.115576872987
 20
-1699.775561149741
 30
0
 11
4383.721576872987
 21
-1700.88876114973
 31
0
  0
LINE
  8
1
 62
7
 10
4383.721576872987
 20
-1700.88876114973
 30
0
 11
4384.041776872967
 21
-1701.44896114974
 31
0
  0
LINE
  8
1
 62
7
 10
4384.041776872967
 20
-1701.44896114974
 30
0
 11
4384.373576872967
 21
-1702.011761149729
 31
0
  0
LINE
  8
1
 62
7
 10
4384.373576872967
 20
-1702.011761149729
 30
0
 11
4385.072276872967
 21
-1703.145661149741
 31
0
  0
LINE
  8
1
 62
7
 10
4385.072276872967
 20
-1703.145661149741
 30
0
 11
4385.818376872979
 21
-1704.29136114972
 31
0
  0
LINE
  8
1
 62
7
 10
4385.818376872979
 20
-1704.29136114972
 30
0
 11
4386.209576872977
 21
-1704.868861149719
 31
0
  0
LINE
  8
1
 62
7
 10
4386.209576872977
 20
-1731.27296114973
 30
0
 11
4385.818376872979
 21
-1731.27296114973
 31
0
  0
LINE
  8
1
 62
7
 10
4385.818376872979
 20
-1731.27296114973
 30
0
 11
4385.072276872967
 21
-1731.27296114973
 31
0
  0
LINE
  8
1
 62
7
 10
4386.209576872977
 20
-1704.868861149719
 30
0
 11
4386.209576872977
 21
-1731.27296114973
 31
0
  0
LINE
  8
1
 62
7
 10
4368.809576872968
 20
-1655.31526114972
 30
0
 11
4368.069316872977
 21
-1654.85876114972
 31
0
  0
LINE
  8
1
 62
7
 10
4368.069316872977
 20
-1654.85876114972
 30
0
 11
4366.557766872967
 21
-1653.92676114973
 31
0
  0
LINE
  8
1
 62
7
 10
4366.557766872967
 20
-1653.92676114973
 30
0
 11
4364.209576872977
 21
-1652.479261149728
 31
0
  0
LINE
  8
1
 62
7
 10
4386.209576872977
 20
-1646.49786114972
 30
0
 11
4364.209576872977
 21
-1646.49786114972
 31
0
  0
LINE
  8
1
 62
7
 10
4386.209576872977
 20
-1652.479261149728
 30
0
 11
4385.001576872978
 21
-1652.968561149729
 31
0
  0
LINE
  8
1
 62
7
 10
4385.001576872978
 20
-1652.968561149729
 30
0
 11
4382.636276872977
 21
-1653.92676114973
 31
0
  0
LINE
  8
1
 62
7
 10
4382.636276872977
 20
-1653.92676114973
 30
0
 11
4379.209576872977
 21
-1655.31526114972
 31
0
  0
LINE
  8
1
 62
7
 10
4364.209576872977
 20
-1639.27296114973
 30
0
 11
4364.466626872977
 21
-1639.27296114973
 31
0
  0
LINE
  8
1
 62
7
 10
4368.809576872968
 20
-1640.523361149731
 30
0
 11
4368.809576872968
 21
-1639.27296114973
 31
0
  0
LINE
  8
1
 62
7
 10
4368.524376872977
 20
-1680.489921149728
 30
0
 11
4368.383986872977
 21
-1679.426231149718
 31
0
  0
LINE
  8
1
 62
7
 10
4368.383986872977
 20
-1679.426231149718
 30
0
 11
4368.215626872977
 21
-1678.360451149728
 31
0
  0
LINE
  8
1
 62
7
 10
4368.215626872977
 20
-1678.360451149728
 30
0
 11
4368.019226872976
 21
-1677.291721149729
 31
0
  0
LINE
  8
1
 62
7
 10
4368.019226872976
 20
-1677.291721149729
 30
0
 11
4367.794686872977
 21
-1676.219221149731
 31
0
  0
LINE
  8
1
 62
7
 10
4367.794686872977
 20
-1676.219221149731
 30
0
 11
4367.671816872978
 21
-1675.681301149721
 31
0
  0
LINE
  8
1
 62
7
 10
4367.671816872978
 20
-1675.681301149721
 30
0
 11
4367.541836872976
 21
-1675.142061149719
 31
0
  0
LINE
  8
1
 62
7
 10
4367.541836872976
 20
-1675.142061149719
 30
0
 11
4367.260496872978
 21
-1674.05956114974
 31
0
  0
LINE
  8
1
 62
7
 10
4367.260496872978
 20
-1674.05956114974
 30
0
 11
4366.950406872976
 21
-1672.970661149731
 31
0
  0
LINE
  8
1
 62
7
 10
4366.950406872976
 20
-1672.970661149731
 30
0
 11
4366.611276872986
 21
-1671.874561149721
 31
0
  0
LINE
  8
1
 62
7
 10
4366.611276872986
 20
-1671.874561149721
 30
0
 11
4366.242776872968
 21
-1670.770361149719
 31
0
  0
LINE
  8
1
 62
7
 10
4366.242776872968
 20
-1670.770361149719
 30
0
 11
4365.844526872977
 21
-1669.65716114972
 31
0
  0
LINE
  8
1
 62
7
 10
4365.844526872977
 20
-1669.65716114972
 30
0
 11
4365.634106872966
 21
-1669.09696114972
 31
0
  0
LINE
  8
1
 62
7
 10
4365.634106872966
 20
-1669.09696114972
 30
0
 11
4365.416076872977
 21
-1668.53416114972
 31
0
  0
LINE
  8
1
 62
7
 10
4365.416076872977
 20
-1668.53416114972
 30
0
 11
4364.956956872978
 21
-1667.400261149741
 31
0
  0
LINE
  8
1
 62
7
 10
4364.956956872978
 20
-1667.400261149741
 30
0
 11
4364.466626872977
 21
-1666.254561149729
 31
0
  0
LINE
  8
1
 62
7
 10
4364.466626872977
 20
-1666.254561149729
 30
0
 11
4364.209576872977
 21
-1665.67706114973
 31
0
  0
LINE
  8
1
 62
7
 10
4379.209576872977
 20
-1640.523361149731
 30
0
 11
4379.209576872977
 21
-1639.27296114973
 31
0
  0
LINE
  8
1
 62
7
 10
4379.209576872977
 20
-1639.27296114973
 30
0
 11
4379.214976872979
 21
-1639.27296114973
 31
0
  0
LINE
  8
1
 62
7
 10
4379.214976872979
 20
-1639.27296114973
 30
0
 11
4379.258076872967
 21
-1639.27296114973
 31
0
  0
LINE
  8
1
 62
7
 10
4379.258076872967
 20
-1639.27296114973
 30
0
 11
4386.209576872977
 21
-1639.27296114973
 31
0
  0
LINE
  8
1
 62
7
 10
4386.209576872977
 20
-1665.67706114973
 30
0
 11
4385.818376872979
 21
-1666.254561149729
 31
0
  0
LINE
  8
1
 62
7
 10
4385.818376872979
 20
-1666.254561149729
 30
0
 11
4385.072276872967
 21
-1667.400261149741
 31
0
  0
LINE
  8
1
 62
7
 10
4385.072276872967
 20
-1667.400261149741
 30
0
 11
4384.373576872967
 21
-1668.53416114972
 31
0
  0
LINE
  8
1
 62
7
 10
4384.373576872967
 20
-1668.53416114972
 30
0
 11
4384.041776872967
 21
-1669.09696114972
 31
0
  0
LINE
  8
1
 62
7
 10
4384.041776872967
 20
-1669.09696114972
 30
0
 11
4383.721576872987
 21
-1669.65716114972
 31
0
  0
LINE
  8
1
 62
7
 10
4383.721576872987
 20
-1669.65716114972
 30
0
 11
4383.115576872987
 21
-1670.770361149719
 31
0
  0
LINE
  8
1
 62
7
 10
4383.115576872987
 20
-1670.770361149719
 30
0
 11
4382.554776872977
 21
-1671.874561149721
 31
0
  0
LINE
  8
1
 62
7
 10
4382.554776872977
 20
-1671.874561149721
 30
0
 11
4382.038776872977
 21
-1672.970661149731
 31
0
  0
LINE
  8
1
 62
7
 10
4382.038776872977
 20
-1672.970661149731
 30
0
 11
4381.566876872988
 21
-1674.05956114974
 31
0
  0
LINE
  8
1
 62
7
 10
4381.566876872988
 20
-1674.05956114974
 30
0
 11
4381.138776872977
 21
-1675.142061149719
 31
0
  0
LINE
  8
1
 62
7
 10
4381.138776872977
 20
-1675.142061149719
 30
0
 11
4380.940976872967
 21
-1675.681301149721
 31
0
  0
LINE
  8
1
 62
7
 10
4380.940976872967
 20
-1675.681301149721
 30
0
 11
4380.753976872976
 21
-1676.219221149731
 31
0
  0
LINE
  8
1
 62
7
 10
4380.753976872976
 20
-1676.219221149731
 30
0
 11
4380.412276872979
 21
-1677.291721149729
 31
0
  0
LINE
  8
1
 62
7
 10
4380.412276872979
 20
-1677.291721149729
 30
0
 11
4380.113376872977
 21
-1678.360451149728
 31
0
  0
LINE
  8
1
 62
7
 10
4380.113376872977
 20
-1678.360451149728
 30
0
 11
4379.857176872966
 21
-1679.426231149718
 31
0
  0
LINE
  8
1
 62
7
 10
4379.857176872966
 20
-1679.426231149718
 30
0
 11
4379.643576872978
 21
-1680.489921149728
 31
0
  0
LINE
  8
1
 62
7
 10
4379.643576872978
 20
-1680.489921149728
 30
0
 11
4379.472476872978
 21
-1681.552341149741
 31
0
  0
LINE
  8
1
 62
7
 10
4379.472476872978
 20
-1681.552341149741
 30
0
 11
4379.402876872998
 21
-1682.083331149729
 31
0
  0
LINE
  8
1
 62
7
 10
4379.402876872998
 20
-1682.083331149729
 30
0
 11
4379.343876872968
 21
-1682.614331149721
 31
0
  0
LINE
  8
1
 62
7
 10
4379.343876872968
 20
-1682.614331149721
 30
0
 11
4379.258076872967
 21
-1683.676731149731
 31
0
  0
LINE
  8
1
 62
7
 10
4379.258076872967
 20
-1683.676731149731
 30
0
 11
4379.214976872979
 21
-1684.740391149731
 31
0
  0
LINE
  8
1
 62
7
 10
4379.214976872979
 20
-1684.740391149731
 30
0
 11
4379.209576872977
 21
-1685.27296114973
 31
0
  0
LINE
  8
1
 62
7
 10
4386.209576872977
 20
-1639.27296114973
 30
0
 11
4386.209576872977
 21
-1665.67706114973
 31
0
  0
LINE
  8
1
 62
7
 10
4364.209576872977
 20
-1652.479261149728
 30
0
 11
4365.003396872969
 21
-1652.968561149729
 31
0
  0
LINE
  8
1
 62
7
 10
4365.003396872969
 20
-1652.968561149729
 30
0
 11
4366.557766872967
 21
-1653.92676114973
 31
0
  0
LINE
  8
1
 62
7
 10
4366.557766872967
 20
-1653.92676114973
 30
0
 11
4368.809576872968
 21
-1655.31526114972
 31
0
  0
LINE
  8
1
 62
7
 10
4379.209576872977
 20
-1655.31526114972
 30
0
 11
4380.336076872975
 21
-1654.85876114972
 31
0
  0
LINE
  8
1
 62
7
 10
4380.336076872975
 20
-1654.85876114972
 30
0
 11
4382.636276872977
 21
-1653.92676114973
 31
0
  0
LINE
  8
1
 62
7
 10
4382.636276872977
 20
-1653.92676114973
 30
0
 11
4386.209576872977
 21
-1652.479261149728
 31
0
  0
LINE
  8
1
 62
3
  6
DASHED
 10
4368.809576872968
 20
-1639.27296114973
 30
0
 11
4368.806026872967
 21
-1639.27296114973
 31
0
  0
LINE
  8
1
 62
3
  6
DASHED
 10
4368.806026872967
 20
-1639.27296114973
 30
0
 11
4368.777736872976
 21
-1639.27296114973
 31
0
  0
LINE
  8
1
 62
7
 10
4364.209576872977
 20
-1665.67706114973
 30
0
 11
4364.466626872977
 21
-1666.254561149729
 31
0
  0
LINE
  8
1
 62
7
 10
4364.466626872977
 20
-1666.254561149729
 30
0
 11
4364.956956872978
 21
-1667.400261149741
 31
0
  0
LINE
  8
1
 62
7
 10
4364.956956872978
 20
-1667.400261149741
 30
0
 11
4365.416076872977
 21
-1668.53416114972
 31
0
  0
LINE
  8
1
 62
7
 10
4365.416076872977
 20
-1668.53416114972
 30
0
 11
4365.634106872966
 21
-1669.09696114972
 31
0
  0
LINE
  8
1
 62
7
 10
4365.634106872966
 20
-1669.09696114972
 30
0
 11
4365.844526872977
 21
-1669.65716114972
 31
0
  0
LINE
  8
1
 62
7
 10
4365.844526872977
 20
-1669.65716114972
 30
0
 11
4366.242776872968
 21
-1670.770361149719
 31
0
  0
LINE
  8
1
 62
7
 10
4366.242776872968
 20
-1670.770361149719
 30
0
 11
4366.611276872986
 21
-1671.874561149721
 31
0
  0
LINE
  8
1
 62
7
 10
4366.611276872986
 20
-1671.874561149721
 30
0
 11
4366.950406872976
 21
-1672.970661149731
 31
0
  0
LINE
  8
1
 62
7
 10
4366.950406872976
 20
-1672.970661149731
 30
0
 11
4367.260496872978
 21
-1674.05956114974
 31
0
  0
LINE
  8
1
 62
7
 10
4367.260496872978
 20
-1674.05956114974
 30
0
 11
4367.541836872976
 21
-1675.142061149719
 31
0
  0
LINE
  8
1
 62
3
  6
DASHED
 10
4367.541836872976
 20
-1675.142061149719
 30
0
 11
4367.671816872978
 21
-1675.681301149721
 31
0
  0
LINE
  8
1
 62
7
 10
4367.671816872978
 20
-1675.681301149721
 30
0
 11
4367.794686872977
 21
-1676.219221149731
 31
0
  0
LINE
  8
1
 62
7
 10
4367.794686872977
 20
-1676.219221149731
 30
0
 11
4368.019226872976
 21
-1677.291721149729
 31
0
  0
LINE
  8
1
 62
7
 10
4368.019226872976
 20
-1677.291721149729
 30
0
 11
4368.215626872977
 21
-1678.360451149728
 31
0
  0
LINE
  8
1
 62
7
 10
4368.215626872977
 20
-1678.360451149728
 30
0
 11
4368.383986872977
 21
-1679.426231149718
 31
0
  0
LINE
  8
1
 62
7
 10
4368.383986872977
 20
-1679.426231149718
 30
0
 11
4368.524376872977
 21
-1680.489921149728
 31
0
  0
LINE
  8
1
 62
7
 10
4368.524376872977
 20
-1680.489921149728
 30
0
 11
4368.636816872967
 21
-1681.552341149741
 31
0
  0
LINE
  8
1
 62
7
 10
4368.636816872967
 20
-1681.552341149741
 30
0
 11
4368.682556872968
 21
-1682.083331149729
 31
0
  0
LINE
  8
1
 62
7
 10
4391.209576872977
 20
-1729.072961149718
 30
0
 11
4391.209576872977
 21
-1641.472961149731
 31
0
  0
LINE
  8
1
 62
7
 10
4379.343876872968
 20
-1682.614331149721
 30
0
 11
4379.402876872998
 21
-1682.083331149729
 31
0
  0
LINE
  8
1
 62
7
 10
4379.402876872998
 20
-1682.083331149729
 30
0
 11
4379.472476872978
 21
-1681.552341149741
 31
0
  0
LINE
  8
1
 62
7
 10
4379.472476872978
 20
-1681.552341149741
 30
0
 11
4379.643576872978
 21
-1680.489921149728
 31
0
  0
LINE
  8
1
 62
7
 10
4379.643576872978
 20
-1680.489921149728
 30
0
 11
4379.857176872966
 21
-1679.426231149718
 31
0
  0
LINE
  8
1
 62
7
 10
4379.857176872966
 20
-1679.426231149718
 30
0
 11
4380.113376872977
 21
-1678.360451149728
 31
0
  0
LINE
  8
1
 62
7
 10
4380.113376872977
 20
-1678.360451149728
 30
0
 11
4380.412276872979
 21
-1677.291721149729
 31
0
  0
LINE
  8
1
 62
7
 10
4380.412276872979
 20
-1677.291721149729
 30
0
 11
4380.753976872976
 21
-1676.219221149731
 31
0
  0
LINE
  8
1
 62
7
 10
4380.753976872976
 20
-1676.219221149731
 30
0
 11
4380.940976872967
 21
-1675.681301149721
 31
0
  0
LINE
  8
1
 62
7
 10
4380.940976872967
 20
-1675.681301149721
 30
0
 11
4381.138776872977
 21
-1675.142061149719
 31
0
  0
LINE
  8
1
 62
7
 10
4381.138776872977
 20
-1675.142061149719
 30
0
 11
4381.566876872988
 21
-1674.05956114974
 31
0
  0
LINE
  8
1
 62
7
 10
4381.566876872988
 20
-1674.05956114974
 30
0
 11
4382.038776872977
 21
-1672.970661149731
 31
0
  0
LINE
  8
1
 62
7
 10
4382.038776872977
 20
-1672.970661149731
 30
0
 11
4382.554776872977
 21
-1671.874561149721
 31
0
  0
LINE
  8
1
 62
7
 10
4382.554776872977
 20
-1671.874561149721
 30
0
 11
4383.115576872987
 21
-1670.770361149719
 31
0
  0
LINE
  8
1
 62
7
 10
4383.115576872987
 20
-1670.770361149719
 30
0
 11
4383.721576872987
 21
-1669.65716114972
 31
0
  0
LINE
  8
1
 62
7
 10
4383.721576872987
 20
-1669.65716114972
 30
0
 11
4384.041776872967
 21
-1669.09696114972
 31
0
  0
LINE
  8
1
 62
7
 10
4384.041776872967
 20
-1669.09696114972
 30
0
 11
4384.373576872967
 21
-1668.53416114972
 31
0
  0
LINE
  8
1
 62
7
 10
4384.373576872967
 20
-1668.53416114972
 30
0
 11
4385.072276872967
 21
-1667.400261149741
 31
0
  0
LINE
  8
1
 62
7
 10
4385.072276872967
 20
-1667.400261149741
 30
0
 11
4385.818376872979
 21
-1666.254561149729
 31
0
  0
LINE
  8
1
 62
7
 10
4385.818376872979
 20
-1666.254561149729
 30
0
 11
4386.209576872977
 21
-1665.67706114973
 31
0
  0
LINE
  8
1
 62
7
 10
4368.524376872977
 20
-1690.056001149721
 30
0
 11
4368.383986872977
 21
-1691.119691149731
 31
0
  0
LINE
  8
1
 62
7
 10
4368.383986872977
 20
-1691.119691149731
 30
0
 11
4368.215626872977
 21
-1692.185471149721
 31
0
  0
LINE
  8
1
 62
7
 10
4368.215626872977
 20
-1692.185471149721
 30
0
 11
4368.019226872976
 21
-1693.25420114972
 31
0
  0
LINE
  8
1
 62
7
 10
4368.019226872976
 20
-1693.25420114972
 30
0
 11
4367.794686872977
 21
-1694.326701149719
 31
0
  0
LINE
  8
1
 62
7
 10
4367.794686872977
 20
-1694.326701149719
 30
0
 11
4367.671816872978
 21
-1694.864621149728
 31
0
  0
LINE
  8
1
 62
7
 10
4367.671816872978
 20
-1694.864621149728
 30
0
 11
4367.541836872976
 21
-1695.403861149719
 31
0
  0
LINE
  8
1
 62
7
 10
4367.541836872976
 20
-1695.403861149719
 30
0
 11
4367.260496872978
 21
-1696.48636114972
 31
0
  0
LINE
  8
1
 62
7
 10
4367.260496872978
 20
-1696.48636114972
 30
0
 11
4366.950406872976
 21
-1697.575261149719
 31
0
  0
LINE
  8
1
 62
7
 10
4366.950406872976
 20
-1697.575261149719
 30
0
 11
4366.611276872986
 21
-1698.671361149728
 31
0
  0
LINE
  8
1
 62
7
 10
4366.611276872986
 20
-1698.671361149728
 30
0
 11
4366.242776872968
 21
-1699.775561149741
 31
0
  0
LINE
  8
1
 62
7
 10
4366.242776872968
 20
-1699.775561149741
 30
0
 11
4365.844526872977
 21
-1700.88876114973
 31
0
  0
LINE
  8
1
 62
7
 10
4365.844526872977
 20
-1700.88876114973
 30
0
 11
4365.634106872966
 21
-1701.44896114974
 31
0
  0
LINE
  8
1
 62
7
 10
4365.634106872966
 20
-1701.44896114974
 30
0
 11
4365.416076872977
 21
-1702.011761149729
 31
0
  0
LINE
  8
1
 62
7
 10
4365.416076872977
 20
-1702.011761149729
 30
0
 11
4364.956956872978
 21
-1703.145661149741
 31
0
  0
LINE
  8
1
 62
7
 10
4364.956956872978
 20
-1703.145661149741
 30
0
 11
4364.466626872977
 21
-1704.29136114972
 31
0
  0
LINE
  8
1
 62
7
 10
4364.466626872977
 20
-1704.29136114972
 30
0
 11
4364.209576872977
 21
-1704.868861149719
 31
0
  0
LINE
  8
1
 62
7
 10
4364.209576872977
 20
-1665.67706114973
 30
0
 11
4364.209576872977
 21
-1639.27296114973
 31
0
  0
LINE
  8
1
 62
7
 10
4364.209576872977
 20
-1731.27296114973
 30
0
 11
4364.209576872977
 21
-1704.868861149719
 31
0
  0
LINE
  8
1
 62
7
 10
4364.209576872977
 20
-1639.27296114973
 30
0
 11
4359.209576872977
 21
-1639.27296114973
 31
0
  0
LINE
  8
1
 62
7
 10
4364.209576872977
 20
-1731.27296114973
 30
0
 11
4359.209576872977
 21
-1731.27296114973
 31
0
  0
LINE
  8
1
 62
7
 10
4391.209576872977
 20
-1731.27296114973
 30
0
 11
4386.209576872977
 21
-1731.27296114973
 31
0
  0
LINE
  8
1
 62
7
 10
4391.209576872977
 20
-1639.27296114973
 30
0
 11
4386.209576872977
 21
-1639.27296114973
 31
0
  0
LINE
  8
1
 62
7
 10
4368.809576872968
 20
-1731.27296114973
 30
0
 11
4379.209576872977
 21
-1731.27296114973
 31
0
  0
LINE
  8
1
 62
7
 10
4364.209576872977
 20
-1730.02296114973
 30
0
 11
4386.209576872977
 21
-1730.02296114973
 31
0
  0
LINE
  8
1
 62
7
 10
4386.209576872977
 20
-1640.52296114973
 30
0
 11
4364.209576872977
 21
-1640.52296114973
 31
0
  0
LINE
  8
1
 62
7
 10
4379.209576872977
 20
-1639.27296114973
 30
0
 11
4368.809576872968
 21
-1639.27296114973
 31
0
  0
LINE
  8
1
 62
7
 10
4391.209576872977
 20
-1729.072961149718
 30
0
 11
4391.209576872977
 21
-1639.27296114973
 31
0
  0
LINE
  8
1
 62
7
 10
4359.209576872977
 20
-1639.27296114973
 30
0
 11
4359.209576872977
 21
-1729.072961149718
 31
0
  0
LINE
  8
1
 62
7
 10
4391.209576872977
 20
-1731.27296114973
 30
0
 11
4391.209576872977
 21
-1641.472961149731
 31
0
  0
LINE
  8
1
 62
7
 10
4391.209576872977
 20
-1731.27296114973
 30
0
 11
4391.209576872977
 21
-1639.27296114973
 31
0
  0
LINE
  8
1
 62
7
 10
4359.209576872977
 20
-1641.472961149731
 30
0
 11
4359.209576872977
 21
-1731.27296114973
 31
0
  0
LINE
  8
1
 62
7
 10
4359.209576872977
 20
-1639.27296114973
 30
0
 11
4359.209576872977
 21
-1731.27296114973
 31
0
  0
LINE
  8
1
 62
7
 10
4385.818376872979
 20
-1731.27296114973
 30
0
 11
4379.258076872956
 21
-1731.27296114973
 31
0
  0
LINE
  8
1
 62
7
 10
4356.509576872987
 20
-1647.52296114973
 30
0
 11
4355.830552547238
 21
-1647.52296114973
 31
0
  0
LINE
  8
1
 62
7
 10
4356.809576872986
 20
-1640.822961149718
 30
0
 11
4356.809576872986
 21
-1647.222961149731
 31
0
  0
LINE
  8
1
 62
7
 10
4355.830552547238
 20
-1640.52296114973
 30
0
 11
4356.509576872987
 21
-1640.52296114973
 31
0
  0
LINE
  8
1
 62
7
 10
4356.809576872986
 20
-1640.822961149718
 30
0
 11
4356.809576872986
 21
-1647.222961149731
 31
0
  0
LINE
  8
1
 62
7
 10
4357.609576872986
 20
-1640.02296114973
 30
0
 11
4357.609576872986
 21
-1648.02296114973
 31
0
  0
LINE
  8
1
 62
7
 10
4356.809576872986
 20
-1640.02296114973
 30
0
 11
4357.609576872986
 21
-1640.02296114973
 31
0
  0
LINE
  8
1
 62
7
 10
4356.809576872986
 20
-1648.02296114973
 30
0
 11
4356.809576872986
 21
-1640.02296114973
 31
0
  0
LINE
  8
1
 62
7
 10
4357.609576872986
 20
-1648.02296114973
 30
0
 11
4356.809576872986
 21
-1648.02296114973
 31
0
  0
LINE
  8
1
 62
7
 10
4356.509576872987
 20
-1730.02296114973
 30
0
 11
4355.830552547238
 21
-1730.02296114973
 31
0
  0
LINE
  8
1
 62
7
 10
4356.809576872986
 20
-1723.322961149718
 30
0
 11
4356.809576872986
 21
-1729.72296114973
 31
0
  0
LINE
  8
1
 62
7
 10
4355.808576872997
 20
-1723.02296114973
 30
0
 11
4356.509576872987
 21
-1723.02296114973
 31
0
  0
LINE
  8
1
 62
7
 10
4357.609576872986
 20
-1722.52296114973
 30
0
 11
4357.609576872986
 21
-1730.52296114973
 31
0
  0
LINE
  8
1
 62
7
 10
4356.809576872986
 20
-1722.52296114973
 30
0
 11
4357.609576872986
 21
-1722.52296114973
 31
0
  0
LINE
  8
1
 62
7
 10
4356.809576872986
 20
-1730.52296114973
 30
0
 11
4356.809576872986
 21
-1722.52296114973
 31
0
  0
LINE
  8
1
 62
7
 10
4357.609576872986
 20
-1730.52296114973
 30
0
 11
4356.809576872986
 21
-1730.52296114973
 31
0
  0
LINE
  8
1
 62
7
 10
4354.457596872998
 20
-1649.945261149728
 30
0
 11
4357.121267314818
 21
-1648.02296114973
 31
0
  0
LINE
  8
1
 62
7
 10
4354.209576872999
 20
-1697.95206114972
 30
0
 11
4355.808576872997
 21
-1697.95206114972
 31
0
  0
LINE
  8
1
 62
7
 10
4357.609576872986
 20
-1721.667761149721
 30
0
 11
4354.457596872998
 21
-1719.393161149731
 31
0
  0
LINE
  8
1
 62
3
  6
DASHED
 10
4357.609576872986
 20
-1730.372961149728
 30
0
 11
4357.609576872986
 21
-1722.670261149731
 31
0
  0
LINE
  8
1
 62
7
 10
4355.810576873008
 20
-1718.809061149731
 30
0
 11
4358.949516872998
 21
-1721.07436114973
 31
0
  0
LINE
  8
1
 62
7
 10
4355.810576873008
 20
-1718.809061149731
 30
0
 11
4355.810576873008
 21
-1716.494661149721
 31
0
  0
LINE
  8
1
 62
7
 10
4354.209576872999
 20
-1672.593861149729
 30
0
 11
4355.810576873008
 21
-1672.593861149729
 31
0
  0
LINE
  8
1
 62
7
 10
4355.810576873008
 20
-1654.051261149728
 30
0
 11
4355.810576873008
 21
-1651.736861149718
 31
0
  0
LINE
  8
1
 62
7
 10
4358.949516872998
 20
-1649.471561149719
 30
0
 11
4355.810576873008
 21
-1651.736861149718
 31
0
  0
LINE
  8
1
 62
3
  6
DASHED
 10
4359.209576872999
 20
-1640.172961149721
 30
0
 11
4359.209576872999
 21
-1647.872961149729
 31
0
  0
LINE
  8
1
 62
7
 10
4354.457596872998
 20
-1651.152761149718
 30
0
 11
4357.609576872986
 21
-1648.878161149728
 31
0
  0
LINE
  8
1
 62
7
 10
4354.457596872998
 20
-1720.600661149721
 30
0
 11
4357.121267314818
 21
-1722.52296114973
 31
0
  0
LINE
  8
1
 62
7
 10
4357.609576872986
 20
-1721.667761149721
 30
0
 11
4357.609576872986
 21
-1730.372961149728
 31
0
  0
LINE
  8
1
 62
7
 10
4359.209576872999
 20
-1730.372961149728
 30
0
 11
4359.209576872999
 21
-1721.515661149718
 31
0
  0
LINE
  8
1
 62
7
 10
4357.609576872986
 20
-1640.172961149721
 30
0
 11
4357.609576872986
 21
-1648.878161149728
 31
0
  0
LINE
  8
1
 62
7
 10
4359.209576872999
 20
-1649.030261149731
 30
0
 11
4359.209576872999
 21
-1640.172961149721
 31
0
  0
LINE
  8
1
 62
7
 10
4354.457596872998
 20
-1719.393161149731
 30
0
 11
4354.457596872998
 21
-1720.600661149721
 31
0
  0
LINE
  8
1
 62
7
 10
4354.209576872999
 20
-1650.37776114972
 30
0
 11
4354.209576872999
 21
-1720.168161149729
 31
0
  0
LINE
  8
1
 62
7
 10
4354.457596872998
 20
-1649.945261149728
 30
0
 11
4354.457596872998
 21
-1651.152761149718
 31
0
  0
LINE
  8
1
 62
7
 10
4355.808576872997
 20
-1647.52296114973
 30
0
 11
4355.808576872997
 21
-1648.970361149731
 31
0
  0
LINE
  8
1
 62
7
 10
4355.808576872997
 20
-1654.088461149731
 30
0
 11
4355.808576872997
 21
-1716.457461149719
 31
0
  0
LINE
  8
1
 62
7
 10
4355.808576872997
 20
-1721.575561149718
 30
0
 11
4355.808576872997
 21
-1723.02296114973
 31
0
  0
LINE
  8
1
 62
7
 10
4357.410576872978
 20
-1719.963661149729
 30
0
 11
4357.410576872978
 21
-1650.58226114972
 31
0
  0
LINE
  8
1
 62
7
 10
4357.609576872986
 20
-1730.372961149728
 30
0
 11
4359.209576872999
 21
-1730.372961149728
 31
0
  0
LINE
  8
1
 62
3
  6
DASHED
 10
4359.209576872999
 20
-1722.672961149721
 30
0
 11
4357.609576872986
 21
-1722.672961149721
 31
0
  0
LINE
  8
1
 62
7
 10
4357.609576872986
 20
-1730.37026114972
 30
0
 11
4359.209576872999
 21
-1730.37026114972
 31
0
  0
LINE
  8
1
 62
7
 10
4359.209576872999
 20
-1722.670261149731
 30
0
 11
4357.609576872986
 21
-1722.670261149731
 31
0
  0
LINE
  8
1
 62
7
 10
4357.609576872986
 20
-1647.872961149729
 30
0
 11
4359.209576872999
 21
-1647.872961149729
 31
0
  0
LINE
  8
1
 62
7
 10
4359.209576872999
 20
-1640.172961149721
 30
0
 11
4357.609576872986
 21
-1640.172961149721
 31
0
  0
LINE
  8
1
 62
3
  6
DASHDOT
 10
4354.209576872999
 20
-1685.27296114973
 30
0
 11
4351.209576872999
 21
-1685.27296114973
 31
0
  0
LINE
  8
1
 62
7
 10
4637.209576872999
 20
-1627.386209803779
 30
0
 11
4634.709576872999
 21
-1628.82958547676
 31
0
  0
LINE
  8
1
 62
7
 10
4634.709576872999
 20
-1628.82958547676
 30
0
 11
4634.709576872999
 21
-1631.716336822719
 31
0
  0
LINE
  8
1
 62
7
 10
4634.709576872999
 20
-1631.716336822719
 30
0
 11
4637.209576872999
 21
-1633.159712495668
 31
0
  0
LINE
  8
1
 62
7
 10
4637.209576872999
 20
-1633.159712495668
 30
0
 11
4639.709576872988
 21
-1631.716336822701
 31
0
  0
LINE
  8
1
 62
7
 10
4639.709576872988
 20
-1631.716336822701
 30
0
 11
4639.709576872999
 21
-1628.82958547676
 31
0
  0
LINE
  8
1
 62
7
 10
4639.709576872999
 20
-1628.82958547676
 30
0
 11
4637.209576872999
 21
-1627.386209803779
 31
0
  0
LINE
  8
1
 62
3
  6
DASHDOT
 10
4629.209576872999
 20
-1630.27296114973
 30
0
 11
4645.209576872999
 21
-1630.27296114973
 31
0
  0
LINE
  8
1
 62
3
  6
DASHDOT
 10
4637.209576872999
 20
-1622.27296114973
 30
0
 11
4637.209576872999
 21
-1638.27296114973
 31
0
  0
LINE
  8
1
 62
3
  6
DASHDOT
 10
4637.209576872999
 20
-1622.272961149719
 30
0
 11
4637.209576872999
 21
-1638.272961149719
 31
0
  0
LINE
  8
1
 62
3
  6
DASHDOT
 10
4629.209576872999
 20
-1630.27296114973
 30
0
 11
4645.209576872999
 21
-1630.27296114973
 31
0
  0
LINE
  8
1
 62
3
  6
DASHDOT
 10
4637.209576872999
 20
-1649.27296114973
 30
0
 11
4637.209576872999
 21
-1657.272961149719
 31
0
  0
LINE
  8
1
 62
3
  6
DASHDOT
 10
4633.209576872999
 20
-1653.27296114973
 30
0
 11
4641.209576872988
 21
-1653.27296114973
 31
0
  0
LINE
  8
1
 62
3
  6
DASHDOT
 10
4666.9223897941
 20
-1697.80885953459
 30
0
 11
4662.922389794107
 21
-1704.737062764859
 31
0
  0
LINE
  8
1
 62
3
  6
DASHDOT
 10
4662.922389794107
 20
-1665.80885953459
 30
0
 11
4666.922389794089
 21
-1672.737062764859
 31
0
  0
LINE
  8
1
 62
3
  6
DASHDOT
 10
4668.38649140924
 20
-1703.27296114973
 30
0
 11
4661.45828817898
 21
-1699.27296114973
 31
0
  0
LINE
  8
1
 62
3
  6
DASHDOT
 10
4668.38649140924
 20
-1667.27296114973
 30
0
 11
4661.458288178968
 21
-1671.272961149719
 31
0
  0
LINE
  8
1
 62
7
 10
4695.096328218951
 20
-1685.27296114973
 30
0
 11
4693.652952545969
 21
-1682.772961149719
 31
0
  0
LINE
  8
1
 62
7
 10
4693.652952545969
 20
-1682.772961149719
 30
0
 11
4690.766201200019
 21
-1682.772961149738
 31
0
  0
LINE
  8
1
 62
7
 10
4690.766201200019
 20
-1682.772961149738
 30
0
 11
4689.322825527047
 21
-1685.272961149719
 31
0
  0
LINE
  8
1
 62
7
 10
4689.322825527047
 20
-1685.272961149719
 30
0
 11
4690.76620120001
 21
-1687.772961149719
 31
0
  0
LINE
  8
1
 62
7
 10
4690.76620120001
 20
-1687.772961149719
 30
0
 11
4693.652952545969
 21
-1687.77296114973
 31
0
  0
LINE
  8
1
 62
7
 10
4693.652952545969
 20
-1687.77296114973
 30
0
 11
4695.096328218951
 21
-1685.27296114973
 31
0
  0
LINE
  8
1
 62
3
  6
DASHDOT
 10
4700.209576872999
 20
-1685.272961149738
 30
0
 11
4684.209576872999
 21
-1685.272961149738
 31
0
  0
LINE
  8
1
 62
3
  6
DASHDOT
 10
4692.209576872999
 20
-1677.272961149748
 30
0
 11
4692.209576872999
 21
-1693.272961149748
 31
0
  0
LINE
  8
1
 62
7
 10
4637.209576872999
 20
-1743.159712495668
 30
0
 11
4639.709576872999
 21
-1741.71633682269
 31
0
  0
LINE
  8
1
 62
7
 10
4639.709576872999
 20
-1741.71633682269
 30
0
 11
4639.709576872999
 21
-1738.829585476738
 31
0
  0
LINE
  8
1
 62
7
 10
4639.709576872999
 20
-1738.829585476738
 30
0
 11
4637.209576872999
 21
-1737.386209803768
 31
0
  0
LINE
  8
1
 62
7
 10
4637.209576872999
 20
-1737.386209803768
 30
0
 11
4634.709576872999
 21
-1738.829585476738
 31
0
  0
LINE
  8
1
 62
7
 10
4634.709576872999
 20
-1738.829585476738
 30
0
 11
4634.709576872999
 21
-1741.716336822679
 31
0
  0
LINE
  8
1
 62
7
 10
4634.709576872999
 20
-1741.716336822679
 30
0
 11
4637.209576872999
 21
-1743.159712495668
 31
0
  0
LINE
  8
1
 62
3
  6
DASHDOT
 10
4641.209576872999
 20
-1717.27296114973
 30
0
 11
4633.20957687301
 21
-1717.27296114973
 31
0
  0
LINE
  8
1
 62
3
  6
DASHDOT
 10
4637.209576872999
 20
-1721.27296114973
 30
0
 11
4637.209576872999
 21
-1713.272961149738
 31
0
  0
LINE
  8
1
 62
3
  6
DASHDOT
 10
4637.209576872988
 20
-1748.272961149738
 30
0
 11
4637.209576872988
 21
-1732.272961149738
 31
0
  0
LINE
  8
1
 62
3
  6
DASHDOT
 10
4645.209576872988
 20
-1740.27296114973
 30
0
 11
4629.209576872988
 21
-1740.27296114973
 31
0
  0
LINE
  8
1
 62
3
  6
DASHDOT
 10
4607.496763951897
 20
-1672.737062764859
 30
0
 11
4611.49676395189
 21
-1665.808859534609
 31
0
  0
LINE
  8
1
 62
3
  6
DASHDOT
 10
4611.496763951897
 20
-1704.737062764859
 30
0
 11
4607.496763951897
 21
-1697.808859534598
 31
0
  0
LINE
  8
1
 62
3
  6
DASHDOT
 10
4606.032662336759
 20
-1667.27296114973
 30
0
 11
4612.960865567019
 21
-1671.27296114973
 31
0
  0
LINE
  8
1
 62
3
  6
DASHDOT
 10
4606.032662336759
 20
-1703.27296114973
 30
0
 11
4612.96086556703
 21
-1699.27296114973
 31
0
  0
LINE
  8
1
 62
7
 10
4579.322825527058
 20
-1685.272961149719
 30
0
 11
4580.766201200028
 21
-1687.772961149719
 31
0
  0
LINE
  8
1
 62
7
 10
4580.766201200028
 20
-1687.772961149719
 30
0
 11
4583.65295254598
 21
-1687.772961149719
 31
0
  0
LINE
  8
1
 62
7
 10
4583.65295254598
 20
-1687.772961149719
 30
0
 11
4585.096328218951
 21
-1685.272961149719
 31
0
  0
LINE
  8
1
 62
7
 10
4585.096328218951
 20
-1685.272961149719
 30
0
 11
4583.65295254598
 21
-1682.772961149719
 31
0
  0
LINE
  8
1
 62
7
 10
4583.65295254598
 20
-1682.772961149719
 30
0
 11
4580.766201200028
 21
-1682.772961149719
 31
0
  0
LINE
  8
1
 62
7
 10
4580.766201200028
 20
-1682.772961149719
 30
0
 11
4579.322825527058
 21
-1685.272961149719
 31
0
  0
LINE
  8
1
 62
3
  6
DASHDOT
 10
4574.209576872988
 20
-1685.27296114973
 30
0
 11
4590.209576872988
 21
-1685.27296114973
 31
0
  0
LINE
  8
1
 62
3
  6
DASHDOT
 10
4574.209576872988
 20
-1685.27296114973
 30
0
 11
4590.209576872988
 21
-1685.27296114973
 31
0
  0
LINE
  8
1
 62
3
  6
DASHDOT
 10
4582.209576872988
 20
-1693.27296114973
 30
0
 11
4582.209576872988
 21
-1677.27296114973
 31
0
  0
LINE
  8
1
 62
3
  6
DASHDOT
 10
4582.209576872988
 20
-1693.27296114973
 30
0
 11
4582.209576872988
 21
-1677.27296114973
 31
0
  0
LINE
  8
1
 62
3
  6
DASHDOT
 10
4231.209576872999
 20
-1683.77296114973
 30
0
 11
4231.209576872999
 21
-1686.77296114973
 31
0
  0
LINE
  8
1
 62
3
  6
DASHDOT
 10
4232.709576872999
 20
-1685.27296114973
 30
0
 11
4229.709576872999
 21
-1685.27296114973
 31
0
  0
LINE
  8
1
 62
3
  6
DASHDOT
 10
4226.209576872999
 20
-1616.27296114973
 30
0
 11
4236.209576872999
 21
-1616.27296114973
 31
0
  0
LINE
  8
1
 62
3
  6
DASHDOT
 10
4231.209576872998
 20
-1621.27296114973
 30
0
 11
4231.209576872998
 21
-1611.27296114973
 31
0
  0
LINE
  8
1
 62
3
  6
DASHDOT
 10
4300.209576872998
 20
-1690.27296114973
 30
0
 11
4300.209576872998
 21
-1680.27296114973
 31
0
  0
LINE
  8
1
 62
3
  6
DASHDOT
 10
4295.209576872999
 20
-1685.27296114973
 30
0
 11
4305.209576872999
 21
-1685.27296114973
 31
0
  0
LINE
  8
1
 62
3
  6
DASHDOT
 10
4236.209576872999
 20
-1754.27296114973
 30
0
 11
4226.209576872999
 21
-1754.27296114973
 31
0
  0
LINE
  8
1
 62
3
  6
DASHDOT
 10
4231.209576872998
 20
-1759.27296114973
 30
0
 11
4231.209576872998
 21
-1749.27296114973
 31
0
  0
LINE
  8
1
 62
3
  6
DASHDOT
 10
4157.209576872999
 20
-1685.27296114973
 30
0
 11
4167.209576872999
 21
-1685.27296114973
 31
0
  0
LINE
  8
1
 62
3
  6
DASHDOT
 10
4162.209576873
 20
-1680.27296114973
 30
0
 11
4162.209576873
 21
-1690.27296114973
 31
0
  0
LINE
  8
1
 62
3
  6
DASHDOT
 10
4272.459576872999
 20
-1639.172988682297
 30
0
 11
4272.459576872999
 21
-1648.872933617163
 31
0
  0
LINE
  8
1
 62
3
  6
DASHDOT
 10
4267.609604405566
 20
-1644.02296114973
 30
0
 11
4277.309549340432
 21
-1644.02296114973
 31
0
  0
LINE
  8
1
 62
3
  6
DASHDOT
 10
4272.461876873006
 20
-1721.670288682285
 30
0
 11
4272.461876873006
 21
-1731.370233617151
 31
0
  0
LINE
  8
1
 62
3
  6
DASHDOT
 10
4267.611904405573
 20
-1726.520261149718
 30
0
 11
4277.311849340439
 21
-1726.520261149718
 31
0
  0
LINE
  8
1
 62
3
  6
DASHDOT
 10
4189.959576872999
 20
-1721.672988682297
 30
0
 11
4189.959576872999
 21
-1731.372933617163
 31
0
  0
LINE
  8
1
 62
3
  6
DASHDOT
 10
4185.109604405566
 20
-1726.52296114973
 30
0
 11
4194.809549340432
 21
-1726.52296114973
 31
0
  0
LINE
  8
1
 62
3
  6
DASHDOT
 10
4189.957276873006
 20
-1639.175688682298
 30
0
 11
4189.957276873006
 21
-1648.875633617164
 31
0
  0
LINE
  8
1
 62
3
  6
DASHDOT
 10
4185.107304405573
 20
-1644.025661149731
 30
0
 11
4194.807249340439
 21
-1644.025661149731
 31
0
  0
LINE
  8
1
 62
7
 10
4366.500856872967
 20
-1716.65426114972
 30
0
 11
4364.983886872978
 21
-1717.589361149719
 31
0
  0
LINE
  8
1
 62
3
 10
4382.819576872996
 20
-1630.58011860376
 30
0
 11
4382.819576872996
 21
-1627.58011860376
 31
0
  0
LINE
  8
1
 62
3
 10
4383.599576872998
 20
-1627.58011860376
 30
0
 11
4383.599576872998
 21
-1630.58011860376
 31
0
  0
LINE
  8
1
 62
3
 10
4383.209576872999
 20
-1627.58011860376
 30
0
 11
4383.209576872999
 21
-1630.58011860376
 31
0
  0
LINE
  8
1
 62
7
 10
4384.079576872998
 20
-1630.58011860376
 30
0
 11
4382.339576872996
 21
-1630.58011860376
 31
0
  0
LINE
  8
1
 62
7
 10
4384.079576872999
 20
-1639.27296114973
 30
0
 11
4384.079576872998
 21
-1630.58011860376
 31
0
  0
LINE
  8
1
 62
7
 10
4382.339576872996
 20
-1630.58011860376
 30
0
 11
4382.339576872996
 21
-1639.27296114973
 31
0
  0
LINE
  8
1
 62
3
 10
4734.731077534654
 20
-1629.442037964919
 30
0
 11
4737.329153746009
 21
-1627.942037964915
 31
0
  0
LINE
  8
1
 62
3
 10
4737.719153745998
 20
-1628.617537779881
 30
0
 11
4735.121077534654
 21
-1630.117537779862
 31
0
  0
LINE
  8
1
 62
3
 10
4736.919057011988
 20
-1627.231952987736
 30
0
 11
4734.320980800637
 21
-1628.731952987733
 31
0
  0
LINE
  8
1
 62
3
 10
4733.93098080063
 20
-1628.056453172778
 30
0
 11
4736.529057011982
 21
-1626.556453172781
 31
0
  0
LINE
  8
1
 62
3
 10
4734.926077534644
 20
-1629.779787872401
 30
0
 11
4737.524153746005
 21
-1628.279787872388
 31
0
  0
LINE
  8
1
 62
3
 10
4734.125980800635
 20
-1628.394203080257
 30
0
 11
4736.724057011996
 21
-1626.894203080243
 31
0
  0
LINE
  8
1
 62
7
 10
4734.526029167641
 20
-1629.086995476336
 30
0
 11
4735.396041863473
 21
-1630.593872348901
 31
0
  0
LINE
  8
1
 62
7
 10
4733.65601647181
 20
-1627.58011860376
 30
0
 11
4734.526029167641
 21
-1629.086995476336
 31
0
  0
LINE
  8
1
 62
7
 10
4709.941751086408
 20
-1645.290199927199
 30
0
 11
4735.396041863473
 21
-1630.593872348901
 31
0
  0
LINE
  8
1
 62
7
 10
4733.65601647181
 20
-1627.58011860376
 30
0
 11
4708.20169724574
 21
-1642.276462607417
 31
0
  0
LINE
  8
1
 62
7
 10
4734.526029167641
 20
-1629.086995476336
 30
0
 11
4709.08968538712
 21
-1643.772961149732
 31
0
  0
LINE
  8
1
 62
3
 10
4131.089999999988
 20
-1627.942037964915
 30
0
 11
4133.688076211343
 21
-1629.442037964919
 31
0
  0
LINE
  8
1
 62
3
 10
4133.298076211343
 20
-1630.117537779862
 30
0
 11
4130.7
 21
-1628.617537779881
 31
0
  0
LINE
  8
1
 62
3
 10
4134.098172945361
 20
-1628.731952987733
 30
0
 11
4131.500096734009
 21
-1627.231952987736
 31
0
  0
LINE
  8
1
 62
3
 10
4131.890096734015
 20
-1626.556453172781
 30
0
 11
4134.488172945367
 21
-1628.056453172778
 31
0
  0
LINE
  8
1
 62
3
 10
4130.894999999992
 20
-1628.279787872388
 30
0
 11
4133.493076211354
 21
-1629.779787872401
 31
0
  0
LINE
  8
1
 62
3
 10
4131.695096734002
 20
-1626.894203080243
 30
0
 11
4134.293172945362
 21
-1628.394203080257
 31
0
  0
LINE
  8
1
 62
7
 10
4133.023111882524
 20
-1630.593872348901
 30
0
 11
4133.893124578356
 21
-1629.086995476336
 31
0
  0
LINE
  8
1
 62
7
 10
4133.893124578356
 20
-1629.086995476336
 30
0
 11
4134.763137274187
 21
-1627.58011860376
 31
0
  0
LINE
  8
1
 62
7
 10
4133.023111882524
 20
-1630.593872348901
 30
0
 11
4185.209576872999
 21
-1660.724328206834
 31
0
  0
LINE
  8
1
 62
7
 10
4185.209576872999
 20
-1656.705950786478
 30
0
 11
4134.763137274187
 21
-1627.58011860376
 31
0
  0
LINE
  8
1
 62
7
 10
4185.209576872999
 20
-1658.715139496653
 30
0
 11
4133.893124578356
 21
-1629.086995476336
 31
0
  0
ARC
  8
1
 62
7
 10
4395.809576872986
 20
-1685.27296114973
 30
0
 40
9.00000000000315
 50
163.398450400896
 51
196.6015495990361
  0
ARC
  8
1
 62
7
 10
4231.209576872999
 20
-1685.27296114973
 30
0
 40
50.96998053601749
 50
30.75863499519573
 51
44.67130480850256
  0
ARC
  8
1
 62
7
 10
4231.209576872999
 20
-1685.27296114973
 30
0
 40
50.96998053599212
 50
120.7586349951883
 51
133.5243084755217
  0
ARC
  8
1
 62
7
 10
4231.209576872999
 20
-1685.27296114973
 30
0
 40
43.80000000002769
 50
47.37553109415828
 51
132.6244865687931
  0
ARC
  8
1
 62
7
 10
4231.209576872999
 20
-1685.27296114973
 30
0
 40
43.80000000001225
 50
134.7237816867472
 51
225.2733199444074
  0
ARC
  8
1
 62
7
 10
4231.209576872999
 20
-1685.27296114973
 30
0
 40
50.96998053600091
 50
210.7586349951964
 51
224.67130375826
  0
ARC
  8
1
 62
7
 10
4231.209576872999
 20
-1685.27296114973
 30
0
 40
50.96998053598115
 50
300.7586349951921
 51
313.524295029189
  0
ARC
  8
1
 62
7
 10
4231.209576872999
 20
-1685.27296114973
 30
0
 40
43.80000000000964
 50
227.3755310941625
 51
312.6245137188373
  0
ARC
  8
1
 62
7
 10
4231.209576872999
 20
-1685.27296114973
 30
0
 40
43.80000000001746
 50
0
 51
45.27332392309761
  0
ARC
  8
1
 62
7
 10
4231.209576872999
 20
-1685.27296114973
 30
0
 40
43.80000000000341
 50
314.7267612959669
 51
0
  0
ARC
  8
1
 62
7
 10
4272.609576873007
 20
-1643.872961149729
 30
0
 40
4.599999999991269
 50
0
 51
90
  0
ARC
  8
1
 62
7
 10
4189.809576873008
 20
-1643.872961149729
 30
0
 40
4.599999999999
 50
90
 51
180
  0
ARC
  8
1
 62
7
 10
4272.609576873007
 20
-1726.67296114972
 30
0
 40
4.600000000009914
 50
270
 51
0
  0
ARC
  8
1
 62
7
 10
4189.809576873008
 20
-1726.67296114972
 30
0
 40
4.600000000009459
 50
180
 51
270
  0
ARC
  8
1
 62
7
 10
4231.209576872999
 20
-1685.27296114973
 30
0
 40
50.96998053599881
 50
315.3286705697328
 51
329.2413650048119
  0
ARC
  8
1
 62
7
 10
4231.209576872999
 20
-1685.27296114973
 30
0
 40
50.96998053597411
 50
226.4757105851043
 51
239.2413650048053
  0
ARC
  8
1
 62
7
 10
4231.209576872999
 20
-1685.27296114973
 30
0
 40
50.96998053600743
 50
135.3255709953722
 51
149.2413650047959
  0
ARC
  8
1
 62
7
 10
4231.209576872999
 20
-1685.27296114973
 30
0
 40
50.96998053600012
 50
46.47571058510953
 51
59.24136500481433
  0
ARC
  8
1
 62
7
 10
4192.238376872999
 20
-1648.400761149721
 30
0
 40
2.650021622553496
 50
60.03521555065378
 51
74.51131876088572
  0
ARC
  8
1
 62
7
 10
4187.907276872988
 20
-1641.975661149739
 30
0
 40
1.742500000000064
 50
270
 51
0
  0
ARC
  8
1
 62
7
 10
4192.007276873009
 20
-1641.975661149739
 30
0
 40
1.742499999993015
 50
180
 51
270
  0
ARC
  8
1
 62
7
 10
4192.007276873009
 20
-1646.075661149741
 30
0
 40
1.742500000000064
 50
90
 51
180
  0
ARC
  8
1
 62
7
 10
4187.907276872988
 20
-1646.075661149741
 30
0
 40
1.742500000007567
 50
0
 51
90
  0
ARC
  8
1
 62
7
 10
4192.238376872999
 20
-1648.400761149721
 30
0
 40
1.020018063567551
 50
58.39176177254115
 51
108.2946271100323
  0
ARC
  8
1
 62
7
 10
4189.957276873006
 20
-1644.025661149731
 30
0
 40
3.849920752414384
 50
348.0006623476441
 51
288.2928226756186
  0
ARC
  8
1
 62
7
 10
4270.180776872999
 20
-1722.145161149728
 30
0
 40
2.6500216225558
 50
240.0352155507052
 51
254.511318760887
  0
ARC
  8
1
 62
7
 10
4274.511876873005
 20
-1728.570261149728
 30
0
 40
1.742499999999836
 50
90
 51
180
  0
ARC
  8
1
 62
7
 10
4270.411876872989
 20
-1728.570261149728
 30
0
 40
1.742500000007567
 50
0
 51
90
  0
ARC
  8
1
 62
7
 10
4270.411876872989
 20
-1724.470261149729
 30
0
 40
1.742500000012115
 50
270
 51
0
  0
ARC
  8
1
 62
7
 10
4274.511876873005
 20
-1724.470261149729
 30
0
 40
1.742499999989377
 50
180
 51
270
  0
ARC
  8
1
 62
7
 10
4187.909576872996
 20
-1724.47296114973
 30
0
 40
1.742500000000973
 50
270
 51
0
  0
ARC
  8
1
 62
7
 10
4192.009576873016
 20
-1724.47296114973
 30
0
 40
1.742500000007567
 50
180
 51
270
  0
ARC
  8
1
 62
7
 10
4192.009576873016
 20
-1728.572961149718
 30
0
 40
1.742499999999836
 50
90
 51
180
  0
ARC
  8
1
 62
7
 10
4187.909576872996
 20
-1728.572961149718
 30
0
 40
1.742499999993015
 50
0
 51
90
  0
ARC
  8
1
 62
7
 10
4194.609576873007
 20
-1724.872961149728
 30
0
 40
1.019973725162518
 50
138.6090402703864
 51
190.2953006888898
  0
ARC
  8
1
 62
7
 10
4189.959576872999
 20
-1726.52296114973
 30
0
 40
3.850001901317408
 50
60.00001633607327
 51
10.29419768544299
  0
ARC
  8
1
 62
7
 10
4267.809576873008
 20
-1645.672961149721
 30
0
 40
2.649994452808143
 50
320.8411169183723
 51
336.5118863914899
  0
ARC
  8
1
 62
7
 10
4274.509576873016
 20
-1646.072961149718
 30
0
 40
1.742499999999836
 50
90
 51
180
  0
ARC
  8
1
 62
7
 10
4270.409576872996
 20
-1646.072961149718
 30
0
 40
1.742499999993015
 50
0
 51
90
  0
ARC
  8
1
 62
7
 10
4270.409576872996
 20
-1641.972961149731
 30
0
 40
1.742500000000064
 50
270
 51
0
  0
ARC
  8
1
 62
7
 10
4274.509576873016
 20
-1641.972961149731
 30
0
 40
1.742500000007567
 50
180
 51
270
  0
ARC
  8
1
 62
7
 10
4270.180776872999
 20
-1722.145161149728
 30
0
 40
1.020018063573271
 50
238.391761772019
 51
288.2946271100323
  0
ARC
  8
1
 62
7
 10
4272.461876873006
 20
-1726.520261149718
 30
0
 40
3.849920752439247
 50
168.0006623477262
 51
108.2928226759786
  0
ARC
  8
1
 62
7
 10
4267.809576873008
 20
-1645.672961149721
 30
0
 40
1.019973725151358
 50
318.6090402696296
 51
10.29530068912153
  0
ARC
  8
1
 62
7
 10
4272.459576872999
 20
-1644.02296114973
 30
0
 40
3.850001901300484
 50
240.0000163361779
 51
190.294197685276
  0
ARC
  8
1
 62
7
 10
4210.576876872979
 20
-1685.27296114973
 30
0
 40
18.40002897499065
 50
310.9998962624379
 51
49.00010373758485
  0
ARC
  8
1
 62
7
 10
4210.576876872979
 20
-1685.27296114973
 30
0
 40
16.79997652314935
 50
311.0000167885337
 51
48.99998321149074
  0
ARC
  8
1
 62
7
 10
4251.842276873019
 20
-1685.27296114973
 30
0
 40
16.79997652315758
 50
131.0000167885092
 51
228.9999832114663
  0
ARC
  8
1
 62
7
 10
4251.842276873019
 20
-1685.27296114973
 30
0
 40
18.40002897500085
 50
130.9998962624216
 51
229.0001037375557
  0
ARC
  8
1
 62
7
 10
4231.209576872999
 20
-1685.27296114973
 30
0
 40
38.60200226477907
 50
228.238391459901
 51
311.7616085400838
  0
ARC
  8
1
 62
7
 10
4231.209576872999
 20
-1685.27296114973
 30
0
 40
38.60202551849626
 50
134.1499492156199
 51
225.8500507843698
  0
ARC
  8
1
 62
7
 10
4231.209576872999
 20
-1685.27296114973
 30
0
 40
38.60200226477829
 50
48.23839145992717
 51
131.761608540088
  0
ARC
  8
1
 62
7
 10
4231.209576872999
 20
-1685.27296114973
 30
0
 40
38.60202551848718
 50
314.1499492156273
 51
45.85005078438302
  0
ARC
  8
1
 62
7
 10
4231.209576872999
 20
-1685.27296114973
 30
0
 40
36.99999768716918
 50
48.55340507858218
 51
131.4465949214221
  0
ARC
  8
1
 62
7
 10
4231.209576872999
 20
-1685.27296114973
 30
0
 40
36.99997309364012
 50
133.9394512131179
 51
226.0605487868703
  0
ARC
  8
1
 62
7
 10
4231.209576872999
 20
-1685.27296114973
 30
0
 40
36.99999768716324
 50
228.5534050785665
 51
311.4465949214292
  0
ARC
  8
1
 62
7
 10
4231.209576872999
 20
-1685.27296114973
 30
0
 40
36.99997309362974
 50
313.9394512131256
 51
46.06054878688611
  0
ARC
  8
1
 62
7
 10
4231.209576872999
 20
-1685.27296114973
 30
0
 40
31.85196578235151
 50
229.7832677502236
 51
310.2167322497615
  0
ARC
  8
1
 62
7
 10
4231.209576872999
 20
-1685.27296114973
 30
0
 40
31.8520329600749
 50
133.1188276756826
 51
226.8811723243175
  0
ARC
  8
1
 62
7
 10
4231.209576872999
 20
-1685.27296114973
 30
0
 40
31.85196578235296
 50
49.78326775025147
 51
130.2167322497635
  0
ARC
  8
1
 62
7
 10
4231.209576872999
 20
-1685.27296114973
 30
0
 40
31.85203296007241
 50
313.1188276756778
 51
46.88117232432221
  0
ARC
  8
1
 62
7
 10
4231.209576872999
 20
-1685.27296114973
 30
0
 40
30.24998318825401
 50
50.25251045396835
 51
129.7474895460369
  0
ARC
  8
1
 62
7
 10
4231.209576872999
 20
-1685.27296114973
 30
0
 40
30.24999616299697
 50
132.8062038934609
 51
227.1937961065248
  0
ARC
  8
1
 62
7
 10
4231.209576872999
 20
-1685.27296114973
 30
0
 40
30.24998318824777
 50
230.2525104539496
 51
309.7474895460452
  0
ARC
  8
1
 62
7
 10
4231.209576872999
 20
-1685.27296114973
 30
0
 40
30.24999616298694
 50
312.8062038934715
 51
47.19379610654289
  0
ARC
  8
1
 62
7
 10
4231.209576872999
 20
-1685.27296114973
 30
0
 40
24.85203698471608
 50
232.2859908768502
 51
307.7140091231432
  0
ARC
  8
1
 62
7
 10
4231.209576872999
 20
-1685.27296114973
 30
0
 40
24.85197210385595
 50
131.4537965099431
 51
228.5462034900232
  0
ARC
  8
1
 62
7
 10
4231.209576872999
 20
-1685.27296114973
 30
0
 40
24.85203698472267
 50
52.28599087687255
 51
127.7140091231341
  0
ARC
  8
1
 62
7
 10
4231.209576872999
 20
-1685.27296114973
 30
0
 40
24.85197210383701
 50
311.4537965099705
 51
48.54620349006316
  0
ARC
  8
1
 62
7
 10
4231.209576872999
 20
-1685.27296114973
 30
0
 40
23.25003075202162
 50
53.0749998968266
 51
126.9250001031806
  0
ARC
  8
1
 62
7
 10
4231.209576872999
 20
-1685.27296114973
 30
0
 40
23.25002496041804
 50
130.9305228827557
 51
229.0694771172282
  0
ARC
  8
1
 62
7
 10
4231.209576872999
 20
-1685.27296114973
 30
0
 40
23.25003075201817
 50
233.074999896809
 51
306.9250001031838
  0
ARC
  8
1
 62
7
 10
4231.209576872999
 20
-1685.27296114973
 30
0
 40
23.25002496041108
 50
310.9305228827735
 51
49.06947711724264
  0
ARC
  8
1
 62
7
 10
4231.209576872999
 20
-1685.27296114973
 30
0
 40
17.60204069135276
 50
237.0405822355586
 51
302.9594177644315
  0
ARC
  8
1
 62
7
 10
4231.209576872999
 20
-1685.27296114973
 30
0
 40
17.60199314424673
 50
128.3143267047891
 51
231.6856732951883
  0
ARC
  8
1
 62
7
 10
4231.209576872999
 20
-1685.27296114973
 30
0
 40
17.60204069135765
 50
57.04058223558303
 51
122.9594177644269
  0
ARC
  8
1
 62
7
 10
4231.209576872999
 20
-1685.27296114973
 30
0
 40
17.60199314423574
 50
308.3143267048023
 51
51.68567329522016
  0
ARC
  8
1
 62
7
 10
4231.209576872999
 20
-1685.27296114973
 30
0
 40
15.99999366913473
 50
58.68596978064875
 51
121.3140302193596
  0
ARC
  8
1
 62
7
 10
4231.209576872999
 20
-1685.27296114973
 30
0
 40
15.99999811352465
 50
127.2300613301914
 51
232.7699386697869
  0
ARC
  8
1
 62
7
 10
4231.209576872999
 20
-1685.27296114973
 30
0
 40
15.99999366912761
 50
238.6859697806218
 51
301.3140302193698
  0
ARC
  8
1
 62
7
 10
4231.209576872999
 20
-1685.27296114973
 30
0
 40
15.99999811352549
 50
307.2300613302546
 51
52.76993866976707
  0
ARC
  8
1
 62
7
 10
4231.209576872999
 20
-1685.27296114973
 30
0
 40
44.70101774702845
 50
227.2464812855916
 51
312.7535187144059
  0
ARC
  8
1
 62
7
 10
4231.209576872999
 20
-1685.27296114973
 30
0
 40
44.70098337799036
 50
134.8129313458075
 51
225.1870686541924
  0
ARC
  8
1
 62
7
 10
4231.209576872999
 20
-1685.27296114973
 30
0
 40
44.70101774703395
 50
47.24648128560285
 51
132.7535187143997
  0
ARC
  8
1
 62
7
 10
4231.209576872999
 20
-1685.27296114973
 30
0
 40
44.70098337799036
 50
314.8129313458075
 51
45.18706865419247
  0
ARC
  8
1
 62
7
 10
4231.209576872999
 20
-1685.27296114973
 30
0
 40
43.09905661752508
 50
47.47962255022309
 51
132.5203774497769
  0
ARC
  8
1
 62
7
 10
4231.209576872999
 20
-1685.27296114973
 30
0
 40
43.0990013922608
 50
134.6569820203701
 51
225.3430179796197
  0
ARC
  8
1
 62
7
 10
4231.209576872999
 20
-1685.27296114973
 30
0
 40
43.09905661751704
 50
227.4796225502133
 51
312.5203774497867
  0
ARC
  8
1
 62
7
 10
4231.209576872999
 20
-1685.27296114973
 30
0
 40
43.09900139225048
 50
314.6569820203768
 51
45.34301797963337
  0
ARC
  8
1
 62
7
 10
4231.209576872999
 20
-1685.27296114973
 30
0
 40
10.10199909248371
 50
243.0081578688994
 51
296.9918421311741
  0
ARC
  8
1
 62
7
 10
4231.209576872999
 20
-1685.27296114973
 30
0
 40
8.499998070661411
 50
242.9708577171735
 51
297.0291422828047
  0
ARC
  8
1
 62
7
 10
4395.809576872986
 20
-1616.272961149741
 30
0
 40
8.999999999999968
 50
163.3984504009639
 51
196.6015495989695
  0
ARC
  8
1
 62
7
 10
4395.809576872986
 20
-1754.27296114973
 30
0
 40
9.00000000000315
 50
163.398450400896
 51
196.6015495990361
  0
ARC
  8
1
 62
7
 10
4637.209576872999
 20
-1685.27296114973
 30
0
 40
7.5
 50
180
 51
0
  0
ARC
  8
1
 62
7
 10
4637.209576872999
 20
-1685.27296114973
 30
0
 40
7.500000000007276
 50
0
 51
180
  0
ARC
  8
1
 62
7
 10
4637.209576872999
 20
-1684.66796114973
 30
0
 40
8.745000000003882
 50
312.4257962927773
 51
227.5742037072579
  0
ARC
  8
1
 62
7
 10
4233.259576873016
 20
-1614.222961149731
 30
0
 40
1.742500000007567
 50
180
 51
270
  0
ARC
  8
1
 62
7
 10
4229.159576872996
 20
-1614.222961149731
 30
0
 40
1.742500000000064
 50
270
 51
0
  0
ARC
  8
1
 62
7
 10
4229.159576872996
 20
-1618.322961149718
 30
0
 40
1.742499999993015
 50
0
 51
90
  0
ARC
  8
1
 62
7
 10
4233.259576873016
 20
-1618.322961149718
 30
0
 40
1.742499999999836
 50
90
 51
180
  0
ARC
  8
1
 62
7
 10
4160.159576872996
 20
-1683.222961149731
 30
0
 40
1.742500000000064
 50
270
 51
0
  0
ARC
  8
1
 62
7
 10
4160.159576872996
 20
-1687.322961149729
 30
0
 40
1.742499999993015
 50
0
 51
90
  0
ARC
  8
1
 62
7
 10
4164.259576872987
 20
-1687.322961149729
 30
0
 40
1.74249999998915
 50
90
 51
180
  0
ARC
  8
1
 62
7
 10
4164.259576872987
 20
-1683.222961149731
 30
0
 40
1.742499999978463
 50
180
 51
270
  0
ARC
  8
1
 62
7
 10
4229.159576872996
 20
-1756.322961149718
 30
0
 40
1.742499999993015
 50
0
 51
90
  0
ARC
  8
1
 62
7
 10
4233.259576873016
 20
-1756.322961149718
 30
0
 40
1.742499999999836
 50
90
 51
180
  0
ARC
  8
1
 62
7
 10
4233.259576873016
 20
-1752.22296114973
 30
0
 40
1.742500000007567
 50
180
 51
270
  0
ARC
  8
1
 62
7
 10
4229.159576872996
 20
-1752.22296114973
 30
0
 40
1.742500000000973
 50
270
 51
0
  0
ARC
  8
1
 62
7
 10
4302.259576873016
 20
-1687.322961149729
 30
0
 40
1.74249999998915
 50
90
 51
180
  0
ARC
  8
1
 62
7
 10
4302.259576873016
 20
-1683.222961149731
 30
0
 40
1.742500000007567
 50
180
 51
270
  0
ARC
  8
1
 62
7
 10
4298.159576872996
 20
-1683.222961149731
 30
0
 40
1.742500000000064
 50
270
 51
0
  0
ARC
  8
1
 62
7
 10
4298.159576872996
 20
-1687.322961149729
 30
0
 40
1.742500000011205
 50
0
 51
90
  0
ARC
  8
1
 62
7
 10
4637.209576872999
 20
-1685.27296114973
 30
0
 40
83
 50
0
 51
58.62877557035026
  0
ARC
  8
1
 62
7
 10
4637.209576872999
 20
-1685.27296114973
 30
0
 40
83.00000000000902
 50
61.11415580463705
 51
0
  0
ARC
  8
1
 62
7
 10
4637.209576872999
 20
-1685.27296114973
 30
0
 40
81.00000000000715
 50
61.12619330000202
 51
0
  0
ARC
  8
1
 62
7
 10
4637.209576872999
 20
-1685.27296114973
 30
0
 40
81
 50
0
 51
58.57942460072611
  0
ARC
  8
1
 62
7
 10
4231.209576872999
 20
-1685.27296114973
 30
0
 40
83
 50
0
 51
148.7573435065803
  0
ARC
  8
1
 62
7
 10
4231.209576872999
 20
-1685.27296114973
 30
0
 40
83.0000000000102
 50
151.2426564934191
 51
0
  0
ARC
  8
1
 62
7
 10
4328.676276872967
 20
-1685.272094552728
 30
0
 40
40.13329924107825
 50
355.4403179013399
 51
359.9987628141532
  0
ARC
  8
1
 62
7
 10
4405.670076872978
 20
-1685.268630509719
 30
0
 40
26.4605003543867
 50
180.0093772752973
 51
185.7759645814469
  0
ARC
  8
1
 62
7
 10
4328.657476872976
 20
-1685.275436939718
 30
0
 40
40.15210007632102
 50
0.003532874173307385
 51
3.800099385805372
  0
ARC
  8
1
 62
7
 10
4327.884376872978
 20
-1685.32832474973
 30
0
 40
40.92700570952135
 50
3.802246682881843
 51
6.789403238929334
  0
ARC
  8
1
 62
7
 10
4328.676276872967
 20
-1685.273827746721
 30
0
 40
40.13330000935752
 50
0.001237185831165478
 51
4.55968209866015
  0
ARC
  8
1
 62
7
 10
4405.670076872978
 20
-1685.27729178973
 30
0
 40
26.46053978683615
 50
174.2240354185531
 51
179.9906227247264
  0
ARC
  8
1
 62
7
 10
4328.657476872976
 20
-1685.270485359731
 30
0
 40
40.15210028152924
 50
356.1999006141946
 51
359.9964671258111
  0
ARC
  8
1
 62
7
 10
4327.884376872978
 20
-1685.217597549719
 30
0
 40
40.9270051359303
 50
353.2105967610707
 51
356.1977533171178
  0
ARC
  8
1
 62
7
 10
4363.209576872999
 20
-1644.02296114973
 30
0
 40
9.000000000006637
 50
163.3984504009026
 51
196.6015495990295
  0
ARC
  8
1
 62
7
 10
4363.209576872999
 20
-1726.52296114973
 30
0
 40
9.000000000006637
 50
163.3984504009026
 51
196.6015495990295
  0
ARC
  8
1
 62
3
  6
DASHED
 10
4356.159796872998
 20
-1657.008761149721
 30
0
 40
0.3512276446881718
 50
173.8709410060273
 51
179.9836866430676
  0
ARC
  8
1
 62
3
  6
DASHED
 10
4356.160576872978
 20
-1657.008661149731
 30
0
 40
0.3519999999807624
 50
180
 51
186.1155035648502
  0
ARC
  8
1
 62
3
  6
DASHED
 10
4356.156606873005
 20
-1658.102661149721
 30
0
 40
0.3480300143748762
 50
180.0164628879303
 51
186.1523922431138
  0
ARC
  8
1
 62
3
  6
DASHED
 10
4356.157346872998
 20
-1658.10276114974
 30
0
 40
0.3487703010493607
 50
173.8606364617736
 51
180
  0
ARC
  8
1
 62
3
  6
DASHED
 10
4356.159796872998
 20
-1713.537161149731
 30
0
 40
0.3512200142374636
 50
180.0163133564502
 51
186.129058991723
  0
ARC
  8
1
 62
3
  6
DASHED
 10
4356.160576872978
 20
-1713.537261149718
 30
0
 40
0.3520031959765637
 50
173.884496435113
 51
180
  0
ARC
  8
1
 62
3
  6
DASHED
 10
4356.156606873005
 20
-1712.443261149728
 30
0
 40
0.3480345541730407
 50
173.8476077568863
 51
179.9835371139039
  0
ARC
  8
1
 62
3
  6
DASHED
 10
4356.157346872998
 20
-1712.44316114972
 30
0
 40
0.3487700000005134
 50
180
 51
186.1393635364437
  0
ARC
  8
1
 62
3
  6
DASHED
 10
4356.156596872987
 20
-1712.44316114972
 30
0
 40
0.3480199999903562
 50
180
 51
186.1525686847644
  0
ARC
  8
1
 62
3
  6
DASHED
 10
4356.157356872997
 20
-1712.443261149728
 30
0
 40
0.3487802436963016
 50
173.8608121512225
 51
179.9835725149125
  0
ARC
  8
1
 62
3
  6
DASHED
 10
4356.159816872986
 20
-1713.537261149718
 30
0
 40
0.3512475303593588
 50
173.87128933088
 51
180
  0
ARC
  8
1
 62
3
  6
DASHED
 10
4356.160536872997
 20
-1713.537161149731
 30
0
 40
0.3519600142061186
 50
180.0162790574302
 51
186.1161972614499
  0
ARC
  8
1
 62
3
  6
DASHED
 10
4356.156596872987
 20
-1658.10276114974
 30
0
 40
0.3480246117547561
 50
173.8474313134492
 51
180
  0
ARC
  8
1
 62
3
  6
DASHED
 10
4356.157356872997
 20
-1658.102661149721
 30
0
 40
0.3487800143359503
 50
180.0164274869178
 51
186.1391878487775
  0
ARC
  8
1
 62
3
  6
DASHED
 10
4356.159816872986
 20
-1657.008661149731
 30
0
 40
0.3512399999890477
 50
180
 51
186.1287106690831
  0
ARC
  8
1
 62
3
  6
DASHED
 10
4356.160536872997
 20
-1657.008761149721
 30
0
 40
0.3519634236567722
 50
173.8838027363051
 51
179.9837209420887
  0
ARC
  8
1
 62
3
  6
DASHED
 10
4356.162696872986
 20
-1661.482461149731
 30
0
 40
0.3541199999890523
 50
180
 51
186.0789606220436
  0
ARC
  8
1
 62
3
  6
DASHED
 10
4356.163386872987
 20
-1661.482461149731
 30
0
 40
0.3548079143503583
 50
173.9167814588712
 51
180
  0
ARC
  8
1
 62
3
  6
DASHED
 10
4356.168736872997
 20
-1666.14936114972
 30
0
 40
0.3601600000001781
 50
180
 51
186.0404814803578
  0
ARC
  8
1
 62
3
  6
DASHED
 10
4356.169356872989
 20
-1666.149461149729
 30
0
 40
0.3607867630416284
 50
173.9540870539135
 51
179.984118913711
  0
ARC
  8
1
 62
7
 10
4354.661296872989
 20
-1650.380161149729
 30
0
 40
0.4517199823926676
 50
160.3636667974345
 51
179.6955889102063
  0
ARC
  8
1
 62
7
 10
4354.763276872988
 20
-1650.424961149721
 30
0
 40
0.5628696762082504
 50
141.5513081150952
 51
159.5570155226447
  0
ARC
  8
1
 62
7
 10
4354.915436872997
 20
-1650.557661149719
 30
0
 40
0.7646248920799736
 50
126.7823756505168
 51
140.8535807951949
  0
ARC
  8
1
 62
3
  6
DASHED
 10
4356.159036872999
 20
-1652.978661149729
 30
0
 40
0.3504613125490908
 50
173.8739302698932
 51
179.9836512631529
  0
ARC
  8
1
 62
3
  6
DASHED
 10
4356.162696872986
 20
-1709.063461149718
 30
0
 40
0.3541112034140383
 50
173.9210393781028
 51
180
  0
ARC
  8
1
 62
3
  6
DASHED
 10
4356.163386872987
 20
-1709.063461149718
 30
0
 40
0.3548099999898113
 50
180
 51
186.0832185411288
  0
ARC
  8
1
 62
3
  6
DASHED
 10
4356.168736872997
 20
-1704.396561149729
 30
0
 40
0.3601596806873015
 50
173.9595185196063
 51
180
  0
ARC
  8
1
 62
3
  6
DASHED
 10
4356.169356872989
 20
-1704.396461149721
 30
0
 40
0.3607800138506548
 50
180.0158810861446
 51
186.0459129459429
  0
ARC
  8
1
 62
3
  6
DASHED
 10
4356.185636872978
 20
-1699.49416114973
 30
0
 40
0.3770615912246643
 50
174.0937546469025
 51
180
  0
ARC
  8
1
 62
3
  6
DASHED
 10
4356.185996872987
 20
-1699.494061149718
 30
0
 40
0.377420013237641
 50
180.0151809085539
 51
185.9006216827487
  0
ARC
  8
1
 62
3
  6
DASHED
 10
4356.158296872995
 20
-1717.567361149729
 30
0
 40
0.3497255472378774
 50
173.8609925269256
 51
180
  0
ARC
  8
1
 62
3
  6
DASHED
 10
4356.159036872999
 20
-1717.567261149721
 30
0
 40
0.3504600142693511
 50
180.0163487366984
 51
186.126069729922
  0
ARC
  8
1
 62
3
  6
DASHED
 10
4356.157866872995
 20
-1707.994561149731
 30
0
 40
0.3492873231192015
 50
173.8697589342967
 51
180
  0
ARC
  8
1
 62
3
  6
DASHED
 10
4356.158596872999
 20
-1707.994561149731
 30
0
 40
0.3500200000016775
 50
180
 51
186.1174799907939
  0
ARC
  8
1
 62
3
  6
DASHED
 10
4356.160486872998
 20
-1703.369061149718
 30
0
 40
0.351913708303647
 50
173.8829353969898
 51
180
  0
ARC
  8
1
 62
3
  6
DASHED
 10
4356.161186872988
 20
-1703.368961149731
 30
0
 40
0.3526100141707865
 50
180.0162490486766
 51
186.104944077272
  0
ARC
  8
1
 62
3
  6
DASHED
 10
4356.167566873009
 20
-1698.54856114972
 30
0
 40
0.3589856544491739
 50
173.9557397837119
 51
180
  0
ARC
  8
1
 62
3
  6
DASHED
 10
4356.168166873008
 20
-1698.54856114972
 30
0
 40
0.3595900000109396
 50
180
 51
186.0500386759483
  0
ARC
  8
1
 62
7
 10
4354.896916872988
 20
-1718.798661149728
 30
0
 40
0.7391703657405073
 50
223.0834705288955
 51
233.5365651242402
  0
ARC
  8
1
 62
7
 10
4354.766696872996
 20
-1718.910861149721
 30
0
 40
0.5674847042911591
 50
206.8377743557048
 51
223.7904799420973
  0
ARC
  8
1
 62
7
 10
4354.654906872997
 20
-1718.960561149731
 30
0
 40
0.4453300112262751
 50
180.0128659135773
 51
207.6255154353828
  0
ARC
  8
1
 62
7
 10
4358.518040872978
 20
-1721.681561149718
 30
0
 40
0.7449025518428252
 50
43.0818439942005
 51
54.60241885194108
  0
ARC
  8
1
 62
7
 10
4358.652452872978
 20
-1721.565361149729
 30
0
 40
0.5674390293151735
 50
26.82879203848833
 51
43.78256160933805
  0
ARC
  8
1
 62
7
 10
4358.764243872988
 20
-1721.515761149741
 30
0
 40
0.4453330112381363
 50
0.01286583111787224
 51
27.62561088539954
  0
ARC
  8
1
 62
3
  6
DASHED
 10
4356.155926872997
 20
-1716.457461149719
 30
0
 40
0.3473584783629454
 50
173.8355867747528
 51
180
  0
ARC
  8
1
 62
7
 10
4356.156676872985
 20
-1716.457361149728
 30
0
 40
0.3481000143520209
 50
180.0164595727416
 51
186.1511574374146
  0
ARC
  8
1
 62
3
  6
DASHED
 10
4356.157866872995
 20
-1662.551361149718
 30
0
 40
0.349289999998291
 50
180
 51
186.1302410656662
  0
ARC
  8
1
 62
3
  6
DASHED
 10
4356.158596872999
 20
-1662.551361149718
 30
0
 40
0.3500131574562166
 50
173.8825200092062
 51
180
  0
ARC
  8
1
 62
3
  6
DASHED
 10
4356.160486872998
 20
-1667.176861149731
 30
0
 40
0.3519100000012259
 50
180
 51
186.117064603047
  0
ARC
  8
1
 62
3
  6
DASHED
 10
4356.161186872988
 20
-1667.176961149721
 30
0
 40
0.3526097305602463
 50
173.8950559204871
 51
179.9837509508432
  0
ARC
  8
1
 62
3
  6
DASHED
 10
4356.155926872997
 20
-1654.088461149731
 30
0
 40
0.3473500000000058
 50
180
 51
186.1644132268506
  0
ARC
  8
1
 62
3
  6
DASHED
 10
4356.156676872985
 20
-1654.088561149721
 30
0
 40
0.3481041510576641
 50
173.8488425625482
 51
179.9835404274081
  0
ARC
  8
1
 62
3
  6
DASHED
 10
4356.162656872987
 20
-1661.482461149731
 30
0
 40
0.3540820334129644
 50
173.9042634241563
 51
180
  0
ARC
  8
1
 62
3
  6
DASHED
 10
4356.163446872996
 20
-1661.482361149741
 30
0
 40
0.354870014088873
 50
180.016145566616
 51
186.0821919336323
  0
ARC
  8
1
 62
3
  6
DASHED
 10
4356.162656872987
 20
-1709.063461149718
 30
0
 40
0.3540799999900628
 50
180
 51
186.0957365758436
  0
ARC
  8
1
 62
3
  6
DASHED
 10
4356.163446872996
 20
-1709.063561149719
 30
0
 40
0.3548675765557305
 50
173.9178080647615
 51
179.9838544316219
  0
ARC
  8
1
 62
3
  6
DASHED
 10
4356.157856872988
 20
-1707.994561149731
 30
0
 40
0.3492799999912677
 50
180
 51
186.1304162396707
  0
ARC
  8
1
 62
3
  6
DASHED
 10
4356.158626873009
 20
-1707.994661149721
 30
0
 40
0.3500536566020082
 50
173.8667687795626
 51
179.9836321176386
  0
ARC
  8
1
 62
3
  6
DASHED
 10
4356.157856872988
 20
-1662.551361149718
 30
0
 40
0.3492773802943074
 50
173.8695837603293
 51
180
  0
ARC
  8
1
 62
3
  6
DASHED
 10
4356.158626873009
 20
-1662.551261149728
 30
0
 40
0.3500500142955043
 50
180.0163678823986
 51
186.1332312204374
  0
ARC
  8
1
 62
3
  6
DASHED
 10
4356.168656872996
 20
-1666.14936114972
 30
0
 40
0.3600801249586835
 50
173.9581789765622
 51
180
  0
ARC
  8
1
 62
3
  6
DASHED
 10
4356.169486872987
 20
-1666.14936114972
 30
0
 40
0.3609099999903265
 50
180
 51
186.0279519590151
  0
ARC
  8
1
 62
3
  6
DASHED
 10
4356.168656872996
 20
-1704.396561149729
 30
0
 40
0.3600799999985611
 50
180
 51
186.0418210234378
  0
ARC
  8
1
 62
3
  6
DASHED
 10
4356.169486872987
 20
-1704.396561149729
 30
0
 40
0.3609055251526228
 50
173.972048040949
 51
180
  0
ARC
  8
1
 62
3
  6
DASHED
 10
4356.160456872988
 20
-1703.369061149718
 30
0
 40
0.3518799999910698
 50
180
 51
186.1013947812011
  0
ARC
  8
1
 62
3
  6
DASHED
 10
4356.161246873008
 20
-1703.369061149718
 30
0
 40
0.3526693903629226
 50
173.8960925992259
 51
180
  0
ARC
  8
1
 62
3
  6
DASHED
 10
4356.160456872988
 20
-1667.176861149731
 30
0
 40
0.351873236246699
 50
173.8986052170318
 51
180
  0
ARC
  8
1
 62
3
  6
DASHED
 10
4356.161246873008
 20
-1667.176861149731
 30
0
 40
0.3526700000111305
 50
180
 51
186.1039074008109
  0
ARC
  8
1
 62
3
  6
DASHED
 10
4356.185366872988
 20
-1699.49416114973
 30
0
 40
0.3767899999911606
 50
180
 51
185.8953443773894
  0
ARC
  8
1
 62
3
  6
DASHED
 10
4356.186416872998
 20
-1699.49416114973
 30
0
 40
0.3778374592230065
 50
174.1059257983695
 51
180
  0
ARC
  8
1
 62
3
  6
DASHED
 10
4356.167456872997
 20
-1698.54856114972
 30
0
 40
0.3588799999997718
 50
180
 51
186.0619854775671
  0
ARC
  8
1
 62
3
  6
DASHED
 10
4356.168336872986
 20
-1698.548661149728
 30
0
 40
0.3597619040213271
 50
173.9528148657574
 51
179.9840738873931
  0
ARC
  8
1
 62
7
 10
4356.155926872997
 20
-1654.088561149721
 30
0
 40
0.3473584783644591
 50
173.835586772441
 51
179.9835048878124
  0
ARC
  8
1
 62
3
  6
DASHED
 10
4356.156686872989
 20
-1654.088461149731
 30
0
 40
0.3481099999917205
 50
180
 51
186.1509810764555
  0
ARC
  8
1
 62
7
 10
4358.754341872997
 20
-1649.02726114972
 30
0
 40
0.455251517072913
 50
338.8850379206381
 51
359.6224261074484
  0
ARC
  8
1
 62
7
 10
4358.645655872987
 20
-1648.976461149719
 30
0
 40
0.5749887193745193
 50
320.3238636336848
 51
338.0643171838233
  0
ARC
  8
1
 62
7
 10
4358.491886873008
 20
-1648.836761149719
 30
0
 40
0.7825575102769039
 50
305.7879928141695
 51
319.6393850503944
  0
ARC
  8
1
 62
7
 10
4354.661296872989
 20
-1651.587661149718
 30
0
 40
0.4517199823926676
 50
160.3636667974345
 51
179.6955889129748
  0
ARC
  8
1
 62
7
 10
4354.763276872988
 20
-1651.632461149729
 30
0
 40
0.5628696762064123
 50
141.5513081153308
 51
159.5570155208447
  0
ARC
  8
1
 62
7
 10
4354.915436872997
 20
-1651.76516114972
 30
0
 40
0.7646248920887148
 50
126.7823756500271
 51
140.8535807957763
  0
ARC
  8
1
 62
3
  6
DASHED
 10
4356.155926872997
 20
-1716.457361149728
 30
0
 40
0.3473500143947057
 50
180.0164951123376
 51
186.1644132275218
  0
ARC
  8
1
 62
3
  6
DASHED
 10
4356.156686872989
 20
-1716.457461149719
 30
0
 40
0.3481140934878511
 50
173.8490189251444
 51
180
  0
ARC
  8
1
 62
3
  6
DASHED
 10
4356.158286872988
 20
-1717.567361149729
 30
0
 40
0.3497099999913189
 50
180
 51
186.1228926047369
  0
ARC
  8
1
 62
3
  6
DASHED
 10
4356.159056873009
 20
-1717.567361149729
 30
0
 40
0.35048119835485
 50
173.8742791848835
 51
180
  0
ARC
  8
1
 62
7
 10
4354.896916872988
 20
-1720.006161149722
 30
0
 40
0.7392386756712749
 50
223.0891312875449
 51
233.5365651240622
  0
ARC
  8
1
 62
7
 10
4354.766696872996
 20
-1720.118461149719
 30
0
 40
0.5674395647119396
 50
206.8287646981381
 51
223.7904799431911
  0
ARC
  8
1
 62
7
 10
4354.654906872997
 20
-1720.168061149721
 30
0
 40
0.445330011226279
 50
180.0128659158592
 51
207.6255154353828
  0
ARC
  8
1
 62
3
  6
DASHED
 10
4356.158286872988
 20
-1652.97856114972
 30
0
 40
0.3497049243080123
 50
173.8771073952261
 51
180
  0
ARC
  8
1
 62
3
  6
DASHED
 10
4356.445896872988
 20
-1693.567471149741
 30
0
 40
0.6373199999907229
 50
180
 51
184.5402619318195
  0
ARC
  8
1
 62
3
  6
DASHED
 10
4356.449136872997
 20
-1693.567511149729
 30
0
 40
0.6405600752359707
 50
175.4710874778455
 51
179.9964221454956
  0
ARC
  8
1
 62
3
  6
DASHED
 10
4356.476506872997
 20
-1692.719371149731
 30
0
 40
0.6679300018607749
 50
175.5649779481232
 51
179.9991421879254
  0
ARC
  8
1
 62
3
  6
DASHED
 10
4356.471686873006
 20
-1692.719411149719
 30
0
 40
0.6631100018936574
 50
179.9956797681971
 51
184.4508593457461
  0
ARC
  8
1
 62
3
  6
DASHED
 10
4356.448206872988
 20
-1676.978451149719
 30
0
 40
0.639629999990575
 50
180
 51
184.5319186812164
  0
ARC
  8
1
 62
3
  6
DASHED
 10
4356.445506873009
 20
-1676.97843114972
 30
0
 40
0.6369295799381404
 50
175.4587543953831
 51
180.0017991231718
  0
ARC
  8
1
 62
3
  6
DASHED
 10
4356.472566872998
 20
-1677.826551149719
 30
0
 40
0.6639902183662227
 50
175.5515923456555
 51
180.0008629021022
  0
ARC
  8
1
 62
3
  6
DASHED
 10
4356.477856872988
 20
-1677.826491149731
 30
0
 40
0.6692800036516267
 50
180.0059925657976
 51
184.4312062378747
  0
CIRCLE
  8
1
 62
7
 10
4189.957276873006
 20
-1644.025661149731
 30
0
 40
3.5
  0
CIRCLE
  8
1
 62
7
 10
4272.461876873006
 20
-1726.520261149718
 30
0
 40
3.5
  0
CIRCLE
  8
1
 62
7
 10
4189.959576872999
 20
-1726.52296114973
 30
0
 40
3.5
  0
CIRCLE
  8
1
 62
7
 10
4272.459576872999
 20
-1644.02296114973
 30
0
 40
3.5
  0
CIRCLE
  8
1
 62
7
 10
4637.209576872999
 20
-1685.27296114973
 30
0
 40
73
  0
CIRCLE
  8
1
 62
7
 10
4637.209576872999
 20
-1685.27296114973
 30
0
 40
16
  0
CIRCLE
  8
1
 62
7
 10
4633.924576873006
 20
-1694.19643037808
 30
0
 40
0.8500000000094587
  0
CIRCLE
  8
1
 62
7
 10
4640.494576872999
 20
-1694.19643037808
 30
0
 40
0.8500000000094587
  0
CIRCLE
  8
1
 62
7
 10
4637.209576872999
 20
-1685.27296114973
 30
0
 40
1
  0
CIRCLE
  8
1
 62
7
 10
4637.209576872999
 20
-1685.27296114973
 30
0
 40
2.125
  0
CIRCLE
  8
1
 62
7
 10
4637.209576872999
 20
-1685.27296114973
 30
0
 40
21
  0
CIRCLE
  8
1
 62
7
 10
4231.209576872999
 20
-1616.27296114973
 30
0
 40
4
  0
CIRCLE
  8
1
 62
7
 10
4231.209576872999
 20
-1616.27296114973
 30
0
 40
3.800000000017462
  0
CIRCLE
  8
1
 62
7
 10
4231.209576872999
 20
-1616.27296114973
 30
0
 40
3.5
  0
CIRCLE
  8
1
 62
7
 10
4162.209576872999
 20
-1685.27296114973
 30
0
 40
4
  0
CIRCLE
  8
1
 62
7
 10
4162.209576872999
 20
-1685.27296114973
 30
0
 40
3.799999999999045
  0
CIRCLE
  8
1
 62
7
 10
4162.209576872999
 20
-1685.27296114973
 30
0
 40
3.5
  0
CIRCLE
  8
1
 62
7
 10
4231.209576872999
 20
-1754.27296114973
 30
0
 40
4
  0
CIRCLE
  8
1
 62
7
 10
4231.209576872999
 20
-1754.27296114973
 30
0
 40
3.80000000000291
  0
CIRCLE
  8
1
 62
7
 10
4231.209576872999
 20
-1754.27296114973
 30
0
 40
3.5
  0
CIRCLE
  8
1
 62
7
 10
4300.209576872999
 20
-1685.27296114973
 30
0
 40
4
  0
CIRCLE
  8
1
 62
7
 10
4300.209576872999
 20
-1685.27296114973
 30
0
 40
3.799999999999045
  0
CIRCLE
  8
1
 62
7
 10
4300.209576872999
 20
-1685.27296114973
 30
0
 40
3.5
  0
CIRCLE
  8
1
 62
7
 10
4637.209576872999
 20
-1630.27296114973
 30
0
 40
6.100000000009459
  0
CIRCLE
  8
1
 62
7
 10
4637.209576872999
 20
-1630.27296114973
 30
0
 40
5
  0
CIRCLE
  8
1
 62
7
 10
4637.209576872999
 20
-1630.27296114973
 30
0
 40
7
  0
CIRCLE
  8
1
 62
3
 10
4637.209576872999
 20
-1653.27296114973
 30
0
 40
3
  0
CIRCLE
  8
1
 62
7
 10
4637.209576872999
 20
-1653.27296114973
 30
0
 40
2.400000000008731
  0
CIRCLE
  8
1
 62
3
 10
4664.922389794107
 20
-1701.27296114973
 30
0
 40
2.999999999988432
  0
CIRCLE
  8
1
 62
7
 10
4664.922389794107
 20
-1701.27296114973
 30
0
 40
2.400000000008645
  0
CIRCLE
  8
1
 62
3
 10
4664.922389794107
 20
-1669.27296114973
 30
0
 40
3.000000000016196
  0
CIRCLE
  8
1
 62
7
 10
4664.922389794107
 20
-1669.27296114973
 30
0
 40
2.400000000011205
  0
CIRCLE
  8
1
 62
7
 10
4692.209576872999
 20
-1685.272961149719
 30
0
 40
6.099999999991951
  0
CIRCLE
  8
1
 62
7
 10
4692.209576872999
 20
-1685.272961149719
 30
0
 40
5
  0
CIRCLE
  8
1
 62
7
 10
4692.209576872999
 20
-1685.272961149719
 30
0
 40
6.999999999988859
  0
CIRCLE
  8
1
 62
7
 10
4637.209576872999
 20
-1740.272961149719
 30
0
 40
6.099999999991269
  0
CIRCLE
  8
1
 62
7
 10
4637.209576872999
 20
-1740.272961149719
 30
0
 40
5
  0
CIRCLE
  8
1
 62
7
 10
4637.209576872999
 20
-1740.272961149719
 30
0
 40
7
  0
CIRCLE
  8
1
 62
3
 10
4637.209576872999
 20
-1717.27296114973
 30
0
 40
3
  0
CIRCLE
  8
1
 62
7
 10
4637.209576872999
 20
-1717.27296114973
 30
0
 40
2.399999999990541
  0
CIRCLE
  8
1
 62
3
 10
4609.496763951897
 20
-1669.27296114973
 30
0
 40
3.000000000016196
  0
CIRCLE
  8
1
 62
7
 10
4609.496763951897
 20
-1669.27296114973
 30
0
 40
2.400000000013934
  0
CIRCLE
  8
1
 62
3
 10
4609.496763951897
 20
-1701.27296114973
 30
0
 40
3.000000000016196
  0
CIRCLE
  8
1
 62
7
 10
4609.496763951897
 20
-1701.27296114973
 30
0
 40
2.400000000012115
  0
CIRCLE
  8
1
 62
7
 10
4582.209576872999
 20
-1685.272961149719
 30
0
 40
6.09999999999809
  0
CIRCLE
  8
1
 62
7
 10
4582.209576872999
 20
-1685.272961149719
 30
0
 40
5
  0
CIRCLE
  8
1
 62
7
 10
4582.209576872999
 20
-1685.272961149719
 30
0
 40
6.999999999989086
  0
ARC
  8
1
 62
7
 10
4389.109576872986
 20
-1688.472961149731
 30
0
 40
0.299999999999045
 50
270
 51
0
  0
ARC
  8
1
 62
7
 10
4389.109576872986
 20
-1682.072961149718
 30
0
 40
0.3000000000038199
 50
0
 51
90
  0
ARC
  8
1
 62
7
 10
4388.430552547236
 20
-1687.472961149731
 30
0
 40
1.299999999999101
 50
196.6015495990972
 51
270
  0
ARC
  8
1
 62
7
 10
4388.430552547236
 20
-1683.072961149718
 30
0
 40
1.299999999987904
 50
90
 51
163.3984504009029
  0
ARC
  8
1
 62
7
 10
4389.109576872986
 20
-1619.472961149731
 30
0
 40
0.300000000009959
 50
270
 51
0
  0
ARC
  8
1
 62
7
 10
4389.109576872986
 20
-1613.072961149729
 30
0
 40
0.3000000000038199
 50
0
 51
90
  0
ARC
  8
1
 62
7
 10
4388.430552547236
 20
-1618.472961149731
 30
0
 40
1.299999999999101
 50
196.6015495990972
 51
270
  0
ARC
  8
1
 62
7
 10
4388.430552547236
 20
-1614.072961149729
 30
0
 40
1.299999999988131
 50
90
 51
163.3984504013638
  0
ARC
  8
1
 62
7
 10
4389.109576872986
 20
-1757.47296114973
 30
0
 40
0.2999999999999545
 50
270
 51
0
  0
ARC
  8
1
 62
7
 10
4389.109576872986
 20
-1751.072961149718
 30
0
 40
0.3000000000038199
 50
0
 51
90
  0
ARC
  8
1
 62
7
 10
4388.430552547236
 20
-1756.47296114973
 30
0
 40
1.299999999999361
 50
196.6015495991356
 51
270
  0
ARC
  8
1
 62
7
 10
4388.430552547236
 20
-1752.072961149718
 30
0
 40
1.299999999987904
 50
90
 51
163.3984504009029
  0
ARC
  8
1
 62
7
 10
4399.209576872999
 20
-1610.27296114973
 30
0
 40
8
 50
90
 51
180
  0
ARC
  8
1
 62
7
 10
4399.209576872999
 20
-1760.27296114973
 30
0
 40
8
 50
180
 51
270
  0
ARC
  8
1
 62
7
 10
4629.589576872996
 20
-1693.005384312778
 30
0
 40
2.5500000000211
 50
0
 51
47.57420370709159
  0
ARC
  8
1
 62
7
 10
4644.829576873009
 20
-1693.005384312778
 30
0
 40
2.549999999990823
 50
132.4257962929084
 51
180
  0
ARC
  8
1
 62
7
 10
4633.839576872996
 20
-1694.07143037808
 30
0
 40
1.6999999999789
 50
180
 51
270
  0
ARC
  8
1
 62
7
 10
4640.579576873009
 20
-1694.07143037808
 30
0
 40
1.700000000000955
 50
270
 51
0
  0
ARC
  8
1
 62
7
 10
4356.509576872987
 20
-1647.222961149731
 30
0
 40
0.299999999999045
 50
270
 51
0
  0
ARC
  8
1
 62
7
 10
4356.509576872987
 20
-1640.822961149718
 30
0
 40
0.2999999999992724
 50
0
 51
90
  0
ARC
  8
1
 62
7
 10
4355.830552547238
 20
-1646.222961149731
 30
0
 40
1.299999999992128
 50
196.6015495991888
 51
270
  0
ARC
  8
1
 62
7
 10
4355.830552547238
 20
-1641.822961149718
 30
0
 40
1.299999999987904
 50
90
 51
163.3984504008112
  0
ARC
  8
1
 62
7
 10
4356.509576872987
 20
-1729.72296114973
 30
0
 40
0.2999999999999545
 50
270
 51
0
  0
ARC
  8
1
 62
7
 10
4356.509576872987
 20
-1723.322961149718
 30
0
 40
0.2999999999992724
 50
0
 51
90
  0
ARC
  8
1
 62
7
 10
4355.830552547238
 20
-1728.72296114973
 30
0
 40
1.299999999992388
 50
196.6015495992272
 51
270
  0
ARC
  8
1
 62
7
 10
4355.830552547238
 20
-1724.322961149718
 30
0
 40
1.299999999987904
 50
90
 51
163.3984504008112
  0
TEXT
  8
1
 62
7
 10
4144.612195722527
 20
-1591.63403108111
 30
0
 40
5.999999999999999
  1
OPB 120F
 41
0.9
  7
SIMPLEX
 72
1
 73
2
 11
4166.212195722527
 21
-1588.63403108111
 31
0
  0
INSERT
  8
0
  2
TOP__1
 10
4455.308987627096
 20
-1105.778898040228
 30
0
  0
ENDSEC
  0
EOF
