  0
SECTION
  2
HEADER
  9
$ACADVER
  1
AC1009
  9
$INSBASE
 10
0.0
 20
0.0
 30
0.0
  9
$EXTMIN
 10
-63.932544979923897
 20
-56.000000000000007
 30
0.0
  9
$EXTMAX
 10
327.0
 20
89.885015136225988
 30
0.0
  9
$LIMMIN
 10
-64.646830694209612
 20
-56.000000000000007
  9
$LIMMAX
 10
327.0
 20
89.885015136225988
  9
$ORTHOMODE
 70
     0
  9
$REGENMODE
 70
     1
  9
$FILLMODE
 70
     1
  9
$QTEXTMODE
 70
     0
  9
$MIRRTEXT
 70
     1
  9
$DRAGMODE
 70
     2
  9
$LTSCALE
 40
1.0
  9
$OSMODE
 70
    37
  9
$ATTMODE
 70
     1
  9
$TEXTSIZE
 40
3.5
  9
$TRACEWID
 40
0.5
  9
$TEXTSTYLE
  7
STANDARD
  9
$CLAYER
  8
0
  9
$CELTYPE
  6
BYLAYER
  9
$CECOLOR
 62
   256
  9
$DIMSCALE
 40
1.0
  9
$DIMASZ
 40
0.18
  9
$DIMEXO
 40
0.0625
  9
$DIMDLI
 40
0.38
  9
$DIMRND
 40
0.0
  9
$DIMDLE
 40
0.0
  9
$DIMEXE
 40
0.18
  9
$DIMTP
 40
0.0
  9
$DIMTM
 40
0.0
  9
$DIMTXT
 40
0.18
  9
$DIMCEN
 40
0.09
  9
$DIMTSZ
 40
0.0
  9
$DIMTOL
 70
     0
  9
$DIMLIM
 70
     0
  9
$DIMTIH
 70
     1
  9
$DIMTOH
 70
     1
  9
$DIMSE1
 70
     0
  9
$DIMSE2
 70
     0
  9
$DIMTAD
 70
     0
  9
$DIMZIN
 70
     0
  9
$DIMBLK
  1

  9
$DIMASO
 70
     1
  9
$DIMSHO
 70
     1
  9
$DIMPOST
  1

  9
$DIMAPOST
  1

  9
$DIMALT
 70
     0
  9
$DIMALTD
 70
     2
  9
$DIMALTF
 40
25.399999999999999
  9
$DIMLFAC
 40
1.0
  9
$DIMTOFL
 70
     0
  9
$DIMTVP
 40
0.0
  9
$DIMTIX
 70
     0
  9
$DIMSOXD
 70
     0
  9
$DIMSAH
 70
     0
  9
$DIMBLK1
  1

  9
$DIMBLK2
  1

  9
$DIMSTYLE
  2
STANDARD
  9
$DIMCLRD
 70
     0
  9
$DIMCLRE
 70
     0
  9
$DIMCLRT
 70
     0
  9
$DIMTFAC
 40
1.0
  9
$DIMGAP
 40
0.09
  9
$LUNITS
 70
     2
  9
$LUPREC
 70
     4
  9
$SKETCHINC
 40
0.1
  9
$FILLETRAD
 40
2.0
  9
$AUNITS
 70
     0
  9
$AUPREC
 70
     0
  9
$MENU
  1
ACAD
  9
$ELEVATION
 40
0.0
  9
$PELEVATION
 40
0.0
  9
$THICKNESS
 40
0.0
  9
$LIMCHECK
 70
     0
  9
$BLIPMODE
 70
     0
  9
$CHAMFERA
 40
0.0
  9
$CHAMFERB
 40
0.0
  9
$SKPOLY
 70
     0
  9
$TDCREATE
 40
2452095.1192702539
  9
$TDUPDATE
 40
2452095.119836689
  9
$TDINDWG
 40
0.0005733796
  9
$TDUSRTIMER
 40
0.0005733796
  9
$USRTIMER
 70
     1
  9
$ANGBASE
 50
0.0
  9
$ANGDIR
 70
     0
  9
$PDMODE
 70
     0
  9
$PDSIZE
 40
0.0
  9
$PLINEWID
 40
0.0
  9
$COORDS
 70
     1
  9
$SPLFRAME
 70
     0
  9
$SPLINETYPE
 70
     6
  9
$SPLINESEGS
 70
     8
  9
$ATTDIA
 70
     0
  9
$ATTREQ
 70
     1
  9
$HANDLING
 70
 10241
  9
$HANDSEED
  5
C2
  9
$SURFTAB1
 70
     6
  9
$SURFTAB2
 70
     6
  9
$SURFTYPE
 70
     6
  9
$SURFU
 70
     6
  9
$SURFV
 70
     6
  9
$UCSNAME
  2

  9
$UCSORG
 10
0.0
 20
0.0
 30
0.0
  9
$UCSXDIR
 10
1.0
 20
0.0
 30
0.0
  9
$UCSYDIR
 10
0.0
 20
1.0
 30
0.0
  9
$PUCSNAME
  2

  9
$PUCSORG
 10
0.0
 20
0.0
 30
0.0
  9
$PUCSXDIR
 10
1.0
 20
0.0
 30
0.0
  9
$PUCSYDIR
 10
0.0
 20
1.0
 30
0.0
  9
$USERI1
 70
     0
  9
$USERI2
 70
     0
  9
$USERI3
 70
     0
  9
$USERI4
 70
     0
  9
$USERI5
 70
     0
  9
$USERR1
 40
0.0
  9
$USERR2
 40
0.0
  9
$USERR3
 40
0.0
  9
$USERR4
 40
0.0
  9
$USERR5
 40
0.0
  9
$WORLDVIEW
 70
     1
  9
$SHADEDGE
 70
     3
  9
$SHADEDIF
 70
    70
  9
$TILEMODE
 70
     1
  9
$MAXACTVP
 70
    64
  9
$PLIMCHECK
 70
     0
  9
$PEXTMIN
 10
1.0000000000000000E+020
 20
1.0000000000000000E+020
 30
1.0000000000000000E+020
  9
$PEXTMAX
 10
-1.0000000000000000E+020
 20
-1.0000000000000000E+020
 30
-1.0000000000000000E+020
  9
$PLIMMIN
 10
0.0
 20
0.0
  9
$PLIMMAX
 10
12.0
 20
9.0
  9
$UNITMODE
 70
     0
  9
$VISRETAIN
 70
     1
  9
$PLINEGEN
 70
     0
  9
$PSLTSCALE
 70
     1
  0
ENDSEC
  0
SECTION
  2
TABLES
  0
TABLE
  2
VPORT
 70
     2
  0
VPORT
  2
*ACTIVE
 70
     0
 10
0.0
 20
0.0
 11
1.0
 21
1.0
 12
-41.757356518484443
 22
80.919207091729945
 13
0.0
 23
0.0
 14
1.0
 24
1.0
 15
0.0
 25
0.0
 16
0.0
 26
0.0
 36
1.0
 17
0.0
 27
0.0
 37
0.0
 40
8.9999997926714173
 41
2.4144144144144142
 42
50.0
 43
0.0
 44
0.0
 50
0.0
 51
0.0
 71
     0
 72
   100
 73
     1
 74
     1
 75
     0
 76
     0
 77
     0
 78
     0
  0
ENDTAB
  0
TABLE
  2
LTYPE
 70
     9
  0
LTYPE
  2
CONTINUOUS
 70
     0
  3
Solid line
 72
    65
 73
     0
 40
0.0
  0
LTYPE
  2
BORDER
 70
     0
  3
__ __ . __ __ .
 72
    65
 73
     6
 40
18.036367203022799
 49
5.1532477722922314
 49
-2.5766238861461148
 49
5.1532477722922314
 49
-2.5766238861461148
 49
0.0
 49
-2.5766238861461148
  0
LTYPE
  2
CENTER
 70
     0
  3
____ _ ____ _
 72
    65
 73
     4
 40
20.612991089168919
 49
12.883119430730581
 49
-2.5766238861461148
 49
2.5766238861461148
 49
-2.5766238861461148
  0
LTYPE
  2
DASHDOT
 70
     0
  3
__ . __ . __ .
 72
    65
 73
     4
 40
10.306495544584459
 49
5.1532477722922314
 49
-2.5766238861461148
 49
0.0
 49
-2.5766238861461148
  0
LTYPE
  2
DASHED
 70
     0
  3
__ __ __ __ __
 72
    65
 73
     2
 40
7.7298716584383467
 49
5.1532477722922314
 49
-2.5766238861461148
  0
LTYPE
  2
DIVIDE
 70
     0
  3
__ . . __ . . 
 72
    65
 73
     6
 40
12.883119430730581
 49
5.1532477722922314
 49
-2.5766238861461148
 49
0.0
 49
-2.5766238861461148
 49
0.0
 49
-2.5766238861461148
  0
LTYPE
  2
DOT
 70
     0
  3
..............
 72
    65
 73
     4
 40
5.1532477722922314
 49
0.0
 49
-2.5766238861461148
 49
0.0
 49
-2.5766238861461148
  0
LTYPE
  2
HIDDEN
 70
     0
  3
_ _ _ _ _ _ _
 72
    65
 73
     2
 40
3.8649358292191729
 49
2.5766238861461148
 49
-1.288311943073057
  0
LTYPE
  2
PHANTOM
 70
     0
  3
_____ _ _ _____ _ _ 
 72
    65
 73
     6
 40
25.766238861461161
 49
12.883119430730581
 49
-2.5766238861461148
 49
2.5766238861461148
 49
-2.5766238861461148
 49
2.5766238861461148
 49
-2.5766238861461148
  0
ENDTAB
  0
TABLE
  2
LAYER
 70
     2
  0
LAYER
  2
0
 70
     0
 62
     7
  6
CONTINUOUS
  0
LAYER
  2
1
 70
     0
 62
     7
  6
CONTINUOUS
  0
ENDTAB
  0
TABLE
  2
STYLE
 70
     4
  0
STYLE
  2
STANDARD
 70
     0
 40
0.0
 41
1.0
 50
0.0
 71
     0
 42
3.5
  3
txt
  4

  0
STYLE
  2
SIMPLEX
 70
     0
 40
0.0
 41
1.0
 50
0.0
 71
     0
 42
3.5
  3
simplex
  4

  0
STYLE
  2
COMPLEX
 70
     0
 40
0.0
 41
1.0
 50
0.0
 71
     0
 42
3.5
  3
complex
  4

  0
STYLE
  2
ITALIC
 70
     0
 40
0.0
 41
1.0
 50
0.0
 71
     0
 42
3.5
  3
italic
  4

  0
ENDTAB
  0
TABLE
  2
VIEW
 70
     0
  0
ENDTAB
  0
TABLE
  2
UCS
 70
     0
  0
ENDTAB
  0
TABLE
  2
APPID
 70
     1
  0
APPID
  2
ACAD
 70
     0
  0
ENDTAB
  0
TABLE
  2
DIMSTYLE
 70
     1
  0
DIMSTYLE
  2
STANDARD
 70
     0
  3

  4

  5

  6

  7

 40
1.0
 41
0.18
 42
0.0625
 43
0.38
 44
0.18
 45
0.0
 46
0.0
 47
0.0
 48
0.0
140
0.18
141
0.09
142
0.0
143
25.399999999999999
144
1.0
145
0.0
146
1.0
147
0.09
 71
     0
 72
     0
 73
     1
 74
     1
 75
     0
 76
     0
 77
     0
 78
     0
170
     0
171
     2
172
     0
173
     0
174
     0
175
     0
176
     0
177
     0
178
     0
  0
ENDTAB
  0
ENDSEC
  0
SECTION
  2
BLOCKS
  0
BLOCK
  8
0
  2
$MODEL_SPACE
 70
     0
 10
0.0
 20
0.0
 30
0.0
  3
$MODEL_SPACE
  1

  0
ENDBLK
  5
20
  8
0
  0
BLOCK
 67
     1
  8
0
  2
$PAPER_SPACE
 70
     0
 10
0.0
 20
0.0
 30
0.0
  3
$PAPER_SPACE
  1

  0
ENDBLK
  5
1C
 67
     1
  8
0
  0
ENDSEC
  0
SECTION
  2
ENTITIES
  0
LINE
  5
33
  8
1
 62
     7
 10
141.0
 20
-5.75
 30
0.0
 11
141.15000000000001
 21
-5.75
 31
0.0
  0
LINE
  5
34
  8
1
 62
     7
 10
141.0
 20
5.75
 30
0.0
 11
141.15000000000001
 21
5.75
 31
0.0
  0
LINE
  5
35
  8
1
 62
     7
 10
98.0
 20
8.0000000000000124
 30
0.0
 11
98.0
 21
-8.95902676617583
 31
0.0
  0
LINE
  5
36
  8
1
 62
     7
 10
98.0
 20
8.0000000000000124
 30
0.0
 11
99.0
 21
8.0000000000000124
 31
0.0
  0
LINE
  5
37
  8
1
 62
     7
 10
98.0
 20
-8.95902676617583
 30
0.0
 11
99.0
 21
-8.9590267661758318
 31
0.0
  0
LINE
  5
38
  8
1
 62
     7
 10
96.0
 20
6.0
 30
0.0
 11
96.0
 21
-6.0
 31
0.0
  0
LINE
  5
39
  8
1
 62
     7
 10
96.0
 20
-6.0
 30
0.0
 11
97.849999999999994
 21
-6.0
 31
0.0
  0
LINE
  5
3A
  8
1
  6
DASHDOT
 62
     3
 10
96.0
 20
0.0
 30
0.0
 11
93.0
 21
0.0
 31
0.0
  0
LINE
  5
3B
  8
1
 62
     7
 10
97.849999999999994
 20
6.0
 30
0.0
 11
96.0
 21
6.0
 31
0.0
  0
LINE
  5
3C
  8
1
 62
     7
 10
97.849999999999994
 20
6.0
 30
0.0
 11
97.849999999999994
 21
-6.0
 31
0.0
  0
LINE
  5
3D
  8
1
 62
     7
 10
97.849999999999994
 20
5.75
 30
0.0
 11
98.0
 21
5.75
 31
0.0
  0
LINE
  5
3E
  8
1
 62
     7
 10
97.849999999999994
 20
-5.75
 30
0.0
 11
98.0
 21
-5.7499999999999991
 31
0.0
  0
LINE
  5
3F
  8
1
 62
     7
 10
141.0
 20
8.0000000000000124
 30
0.0
 11
141.0
 21
-8.9590267661758283
 31
0.0
  0
LINE
  5
40
  8
1
 62
     7
 10
140.0
 20
-8.9590267661758318
 30
0.0
 11
141.0
 21
-8.9590267661758283
 31
0.0
  0
LINE
  5
41
  8
1
 62
     7
 10
140.0
 20
8.0000000000000124
 30
0.0
 11
141.0
 21
8.0000000000000124
 31
0.0
  0
LINE
  5
42
  8
1
 62
     7
 10
141.15000000000001
 20
-6.0
 30
0.0
 11
175.0
 21
-6.0
 31
0.0
  0
LINE
  5
43
  8
1
 62
     7
 10
175.0
 20
-6.0
 30
0.0
 11
175.0
 21
4.0
 31
0.0
  0
LINE
  5
44
  8
1
 62
     7
 10
155.0
 20
6.0
 30
0.0
 11
141.15000000000001
 21
6.0
 31
0.0
  0
LINE
  5
45
  8
1
 62
     7
 10
141.15000000000001
 20
6.0
 30
0.0
 11
141.15000000000001
 21
-6.0
 31
0.0
  0
LINE
  5
46
  8
1
 62
     3
 10
155.0
 20
-4.4721359549995787
 30
0.0
 11
175.0
 21
4.0
 31
0.0
  0
LINE
  5
47
  8
1
 62
     3
 10
155.0
 20
4.0
 30
0.0
 11
175.0
 21
-4.4721359549995787
 31
0.0
  0
LINE
  5
48
  8
1
 62
     7
 10
155.0
 20
-4.4721359549995787
 30
0.0
 11
175.0
 21
-4.4721359549995787
 31
0.0
  0
LINE
  5
49
  8
1
 62
     7
 10
155.0
 20
6.0
 30
0.0
 11
155.0
 21
-4.4721359549995787
 31
0.0
  0
LINE
  5
4A
  8
1
 62
     7
 10
175.0
 20
4.0
 30
0.0
 11
155.0
 21
4.0
 31
0.0
  0
LINE
  5
4B
  8
1
  6
DASHDOT
 62
     3
 10
178.0
 20
0.0
 30
0.0
 11
175.0
 21
0.0
 31
0.0
  0
LINE
  5
4C
  8
1
 62
     7
 10
-3.0
 20
42.86931771216878
 30
0.0
 11
-2.9999999999999978
 21
43.936624599306818
 31
0.0
  0
LINE
  5
4D
  8
1
 62
     7
 10
269.16000000000003
 20
71.0
 30
0.0
 11
269.16000000000003
 21
55.969763265534709
 31
0.0
  0
LINE
  5
4E
  8
1
 62
     3
 10
270.47000000000003
 20
74.0
 30
0.0
 11
270.47000000000003
 21
71.0
 31
0.0
  0
LINE
  5
4F
  8
1
 62
     3
 10
269.68999999999988
 20
71.0
 30
0.0
 11
269.68999999999988
 21
74.0
 31
0.0
  0
LINE
  5
50
  8
1
 62
     7
 10
272.83999999999992
 20
71.0
 30
0.0
 11
272.83999999999992
 21
55.969763265534709
 31
0.0
  0
LINE
  5
51
  8
1
 62
     7
 10
271.0
 20
71.0
 30
0.0
 11
271.0
 21
56.0
 31
0.0
  0
LINE
  5
52
  8
1
 62
     7
 10
269.16000000000003
 20
71.0
 30
0.0
 11
272.83999999999992
 21
71.0
 31
0.0
  0
LINE
  5
53
  8
1
 62
     3
 10
271.52999999999992
 20
71.0
 30
0.0
 11
271.52999999999992
 21
74.0
 31
0.0
  0
LINE
  5
54
  8
1
 62
     3
 10
272.31
 20
74.0
 30
0.0
 11
272.31
 21
71.0
 31
0.0
  0
LINE
  5
55
  8
1
 62
     3
 10
126.39
 20
74.0
 30
0.0
 11
126.39
 21
71.0
 31
0.0
  0
LINE
  5
56
  8
1
 62
     3
 10
125.6099999999999
 20
71.0
 30
0.0
 11
125.6099999999999
 21
74.0
 31
0.0
  0
LINE
  5
57
  8
1
 62
     7
 10
125.0799999999999
 20
71.0
 30
0.0
 11
126.92
 21
71.0
 31
0.0
  0
LINE
  5
58
  8
1
 62
     7
 10
125.0799999999999
 20
71.0
 30
0.0
 11
125.0799999999999
 21
43.936624599306811
 31
0.0
  0
LINE
  5
59
  8
1
 62
     7
 10
126.92
 20
71.0
 30
0.0
 11
126.92
 21
43.936624599306811
 31
0.0
  0
LINE
  5
5A
  8
1
 62
     7
 10
2.9999999999999978
 20
43.936624599306818
 30
0.0
 11
3.0
 21
42.86931771216878
 31
0.0
  0
LINE
  5
5B
  8
1
 62
     7
 10
-2.9999999999999978
 20
43.936624599306818
 30
0.0
 11
2.9999999999999978
 21
43.936624599306818
 31
0.0
  0
LINE
  5
5C
  8
1
 62
     7
 10
-1.8399999999999741
 20
71.0
 30
0.0
 11
1.8399999999999741
 21
71.0
 31
0.0
  0
LINE
  5
5D
  8
1
 62
     7
 10
-1.8399999999999741
 20
71.0
 30
0.0
 11
-1.8399999999999741
 21
43.936624599306811
 31
0.0
  0
LINE
  5
5E
  8
1
 62
     3
 10
-0.5300000000000296
 20
74.0
 30
0.0
 11
-0.5300000000000296
 21
71.0
 31
0.0
  0
LINE
  5
5F
  8
1
 62
     3
 10
-1.3100000000000009
 20
71.0
 30
0.0
 11
-1.3100000000000009
 21
74.0
 31
0.0
  0
LINE
  5
60
  8
1
 62
     7
 10
1.8399999999999741
 20
71.0
 30
0.0
 11
1.8399999999999741
 21
43.936624599306811
 31
0.0
  0
LINE
  5
61
  8
1
 62
     7
 10
0.0
 20
71.0
 30
0.0
 11
0.0
 21
43.936624599306811
 31
0.0
  0
LINE
  5
62
  8
1
 62
     3
 10
0.5300000000000296
 20
71.0
 30
0.0
 11
0.5300000000000296
 21
74.0
 31
0.0
  0
LINE
  5
63
  8
1
 62
     3
 10
1.3100000000000009
 20
74.0
 30
0.0
 11
1.3100000000000009
 21
71.0
 31
0.0
  0
LINE
  5
64
  8
1
  6
DASHDOT
 62
     3
 10
0.0
 20
1.5
 30
0.0
 11
0.0
 21
-1.5
 31
0.0
  0
LINE
  5
65
  8
1
  6
DASHDOT
 62
     3
 10
-1.5
 20
0.0
 30
0.0
 11
1.5
 21
0.0
 31
0.0
  0
LINE
  5
66
  8
1
 62
     7
 10
130.0
 20
-43.0
 30
0.0
 11
99.0
 21
-42.999999999999993
 31
0.0
  0
LINE
  5
67
  8
1
 62
     7
 10
140.0
 20
-43.0
 30
0.0
 11
140.0
 21
43.0
 31
0.0
  0
LINE
  5
68
  8
1
 62
     7
 10
99.0
 20
43.0
 30
0.0
 11
99.0
 21
-42.999999999999993
 31
0.0
  0
LINE
  5
69
  8
1
 62
     7
 10
123.0
 20
43.936624599306811
 30
0.0
 11
129.0
 21
43.936624599306811
 31
0.0
  0
LINE
  5
6A
  8
1
 62
     7
 10
99.0
 20
43.0
 30
0.0
 11
130.0
 21
43.0
 31
0.0
  0
LINE
  5
6B
  8
1
 62
     7
 10
130.0
 20
56.0
 30
0.0
 11
135.0
 21
56.0
 31
0.0
  0
LINE
  5
6C
  8
1
 62
     7
 10
135.0
 20
56.0
 30
0.0
 11
135.0
 21
-56.000000000000007
 31
0.0
  0
LINE
  5
6D
  8
1
 62
     7
 10
135.0
 20
-56.000000000000007
 30
0.0
 11
130.0
 21
-56.000000000000007
 31
0.0
  0
LINE
  5
6E
  8
1
 62
     7
 10
140.0
 20
-43.0
 30
0.0
 11
135.0
 21
-43.0
 31
0.0
  0
LINE
  5
6F
  8
1
 62
     7
 10
123.0
 20
43.936624599306811
 30
0.0
 11
123.0
 21
43.0
 31
0.0
  0
LINE
  5
70
  8
1
 62
     7
 10
129.0
 20
43.936624599306811
 30
0.0
 11
129.0
 21
43.0
 31
0.0
  0
LINE
  5
71
  8
1
 62
     7
 10
135.0
 20
43.0
 30
0.0
 11
140.0
 21
43.0
 31
0.0
  0
LINE
  5
72
  8
1
 62
     7
 10
130.0
 20
56.0
 30
0.0
 11
130.0
 21
-56.000000000000007
 31
0.0
  0
LINE
  5
73
  8
1
  6
DASHDOT
 62
     3
 10
269.49999999999989
 20
0.0
 30
0.0
 11
272.5
 21
0.0
 31
0.0
  0
LINE
  5
74
  8
1
  6
DASHDOT
 62
     3
 10
271.0
 20
1.5
 30
0.0
 11
271.0
 21
-1.5
 31
0.0
  0
LINE
  5
75
  8
1
  6
DASHDOT
 62
     3
 10
38.006989488776917
 20
38.006989488776917
 30
0.0
 11
32.703688629877817
 21
32.703688629877817
 31
0.0
  0
LINE
  5
76
  8
1
  6
DASHDOT
 62
     3
 10
-38.006989488776917
 20
38.006989488776917
 30
0.0
 11
-32.703688629877817
 21
32.703688629877817
 31
0.0
  0
LINE
  5
77
  8
1
  6
DASHDOT
 62
     3
 10
-38.006989488776931
 20
-38.006989488776917
 30
0.0
 11
-32.703688629877817
 21
-32.70368862987781
 31
0.0
  0
LINE
  5
78
  8
1
  6
DASHDOT
 62
     3
 10
38.006989488776917
 20
-38.006989488776931
 30
0.0
 11
32.70368862987781
 21
-32.703688629877817
 31
0.0
  0
LINE
  5
79
  8
1
  6
DASHDOT
 62
     3
 10
309.00698948877681
 20
38.006989488776917
 30
0.0
 11
303.70368862987777
 21
32.703688629877817
 31
0.0
  0
LINE
  5
7A
  8
1
  6
DASHDOT
 62
     3
 10
309.00698948877681
 20
-38.006989488776931
 30
0.0
 11
303.70368862987777
 21
-32.703688629877817
 31
0.0
  0
LINE
  5
7B
  8
1
  6
DASHDOT
 62
     3
 10
232.99301051122299
 20
-38.006989488776917
 30
0.0
 11
238.29631137012211
 21
-32.70368862987781
 31
0.0
  0
LINE
  5
7C
  8
1
  6
DASHDOT
 62
     3
 10
232.99301051122299
 20
38.006989488776917
 30
0.0
 11
238.29631137012211
 21
32.703688629877817
 31
0.0
  0
LINE
  5
7D
  8
1
 62
     7
 10
275.47213595499949
 20
4.0
 30
0.0
 11
267.0
 21
4.0
 31
0.0
  0
LINE
  5
7E
  8
1
 62
     7
 10
267.0
 20
4.0
 30
0.0
 11
267.0
 21
-4.4721359549995787
 31
0.0
  0
LINE
  5
7F
  8
1
 62
     7
 10
266.80000000000001
 20
-7.0590267661758306
 30
0.0
 11
266.80000000000001
 21
-6.0847657912234112
 31
0.0
  0
LINE
  5
80
  8
1
 62
     7
 10
268.69999999999987
 20
-8.9590267661758318
 30
0.0
 11
270.30000000000001
 21
-8.9590267661758318
 31
0.0
  0
LINE
  5
81
  8
1
 62
     7
 10
270.30000000000001
 20
-5.9590267661758309
 30
0.0
 11
270.30000000000001
 21
-8.9590267661758318
 31
0.0
  0
LINE
  5
82
  8
1
 62
     7
 10
271.69999999999999
 20
-8.9590267661758318
 30
0.0
 11
271.69999999999999
 21
-5.9590267661758309
 31
0.0
  0
LINE
  5
83
  8
1
 62
     7
 10
271.69999999999999
 20
-8.9590267661758318
 30
0.0
 11
273.30000000000001
 21
-8.9590267661758318
 31
0.0
  0
LINE
  5
84
  8
1
 62
     7
 10
275.19999999999987
 20
-6.0847657912234112
 30
0.0
 11
275.19999999999987
 21
-7.0590267661758306
 31
0.0
  0
LINE
  5
85
  8
1
 62
     7
 10
-4.2000000000000091
 20
-7.0590267661758306
 30
0.0
 11
-4.2000000000000091
 21
-6.0847657912234112
 31
0.0
  0
LINE
  5
86
  8
1
 62
     7
 10
-2.3000000000000029
 20
-8.9590267661758318
 30
0.0
 11
-0.70000000000001
 21
-8.9590267661758318
 31
0.0
  0
LINE
  5
87
  8
1
 62
     7
 10
-0.70000000000001
 20
-5.9590267661758309
 30
0.0
 11
-0.70000000000001
 21
-8.9590267661758318
 31
0.0
  0
LINE
  5
88
  8
1
 62
     7
 10
0.6999999999999959
 20
-8.9590267661758318
 30
0.0
 11
0.6999999999999959
 21
-5.9590267661758309
 31
0.0
  0
LINE
  5
89
  8
1
 62
     7
 10
0.6999999999999959
 20
-8.9590267661758318
 30
0.0
 11
2.2999999999999901
 21
-8.9590267661758318
 31
0.0
  0
LINE
  5
8A
  8
1
 62
     7
 10
4.1999999999999948
 20
-6.0847657912234112
 30
0.0
 11
4.1999999999999948
 21
-7.0590267661758306
 31
0.0
  0
LINE
  5
8B
  8
1
 62
     3
 10
271.92000000000002
 20
74.0
 30
0.0
 11
271.92000000000002
 21
71.0
 31
0.0
  0
LINE
  5
8C
  8
1
 62
     3
 10
270.07999999999998
 20
74.0
 30
0.0
 11
270.07999999999998
 21
71.0
 31
0.0
  0
LINE
  5
8D
  8
1
 62
     3
 10
126.0
 20
74.0
 30
0.0
 11
126.0
 21
71.0
 31
0.0
  0
LINE
  5
8E
  8
1
 62
     3
 10
0.9199999999999589
 20
74.0
 30
0.0
 11
0.9199999999999589
 21
71.0
 31
0.0
  0
LINE
  5
8F
  8
1
 62
     3
 10
-0.9200000000000727
 20
74.0
 30
0.0
 11
-0.9200000000000727
 21
71.0
 31
0.0
  0
ARC
  5
90
  8
1
 62
     7
 10
264.60000000000002
 20
-6.0847657912234112
 30
0.0
 40
2.1999999999999891
 50
0.0
 51
47.089815978324999
  0
ARC
  5
91
  8
1
 62
     7
 10
268.69999999999987
 20
-7.0590267661758306
 30
0.0
 40
1.8999999999999759
 50
180.0
 51
270.0
  0
ARC
  5
92
  8
1
 62
     7
 10
273.30000000000001
 20
-7.0590267661758306
 30
0.0
 40
1.8999999999999979
 50
270.0
 51
0.0
  0
ARC
  5
93
  8
1
 62
     7
 10
277.39999999999998
 20
-6.0847657912234112
 30
0.0
 40
2.199999999999974
 50
132.91018402167501
 51
180.0
  0
ARC
  5
94
  8
1
 62
     7
 10
-6.4000000000000119
 20
-6.0847657912234112
 30
0.0
 40
2.200000000000002
 50
0.0
 51
47.089815978324083
  0
ARC
  5
95
  8
1
 62
     7
 10
-2.3000000000000029
 20
-7.0590267661758306
 30
0.0
 40
1.900000000000005
 50
180.0
 51
270.0
  0
ARC
  5
96
  8
1
 62
     7
 10
2.2999999999999901
 20
-7.0590267661758306
 30
0.0
 40
1.8999999999999979
 50
270.0
 51
0.0
  0
ARC
  5
97
  8
1
 62
     7
 10
6.3999999999999977
 20
-6.0847657912234112
 30
0.0
 40
2.2000000000000011
 50
132.910184021676
 51
180.0
  0
ARC
  5
98
  8
1
  6
DASHDOT
 62
     3
 10
0.0
 20
0.0
 30
0.0
 40
50.0
 50
40.701808746271972
 51
49.298191253728028
  0
ARC
  5
99
  8
1
  6
DASHDOT
 62
     3
 10
0.0
 20
0.0
 30
0.0
 40
50.0
 50
130.70180874627189
 51
139.29819125372799
  0
ARC
  5
9A
  8
1
  6
DASHDOT
 62
     3
 10
0.0
 20
0.0
 30
0.0
 40
50.0
 50
220.70180874627201
 51
229.29819125372799
  0
ARC
  5
9B
  8
1
  6
DASHDOT
 62
     3
 10
0.0
 20
0.0
 30
0.0
 40
50.0
 50
310.70180874627198
 51
319.29819125372808
  0
ARC
  5
9C
  8
1
  6
DASHDOT
 62
     3
 10
271.0
 20
0.0
 30
0.0
 40
50.0
 50
40.701808746271972
 51
49.298191253727929
  0
ARC
  5
9D
  8
1
  6
DASHDOT
 62
     3
 10
271.0
 20
0.0
 30
0.0
 40
49.999999999999972
 50
310.70180874627198
 51
319.29819125372802
  0
ARC
  5
9E
  8
1
  6
DASHDOT
 62
     3
 10
271.0
 20
0.0
 30
0.0
 40
50.0
 50
220.70180874627209
 51
229.29819125372791
  0
ARC
  5
9F
  8
1
  6
DASHDOT
 62
     3
 10
271.0
 20
0.0
 30
0.0
 40
50.0
 50
130.70180874627189
 51
139.29819125372799
  0
ARC
  5
A0
  8
1
 62
     7
 10
0.0
 20
0.0
 30
0.0
 40
56.000000000000007
 50
91.882914512785675
 51
88.117085487214325
  0
ARC
  5
A1
  8
1
 62
     7
 10
271.0
 20
0.7999999999999972
 30
0.0
 40
7.2000000000000126
 50
312.91018402167612
 51
227.08981597832391
  0
ARC
  5
A2
  8
1
 62
     7
 10
0.0
 20
0.7999999999999972
 30
0.0
 40
7.2000000000000011
 50
312.91018402167578
 51
227.08981597832391
  0
CIRCLE
  5
A3
  8
1
 62
     7
 10
0.0
 20
0.0
 30
0.0
 40
14.0
  0
CIRCLE
  5
A4
  8
1
 62
     7
 10
0.0
 20
0.0
 30
0.0
 40
6.0
  0
CIRCLE
  5
A5
  8
1
 62
     7
 10
0.0
 20
0.0
 30
0.0
 40
27.0
  0
CIRCLE
  5
A6
  8
1
 62
     7
 10
0.0
 20
0.0
 30
0.0
 40
39.0
  0
CIRCLE
  5
A7
  8
1
 62
     7
 10
0.0
 20
0.0
 30
0.0
 40
43.0
  0
CIRCLE
  5
A8
  8
1
 62
     7
 10
271.0
 20
0.0
 30
0.0
 40
56.0
  0
CIRCLE
  5
A9
  8
1
 62
     7
 10
271.0
 20
0.0
 30
0.0
 40
43.0
  0
CIRCLE
  5
AA
  8
1
 62
     7
 10
271.0
 20
0.0
 30
0.0
 40
14.0
  0
CIRCLE
  5
AB
  8
1
 62
     7
 10
35.355339059327378
 20
35.35533905932737
 30
0.0
 40
2.75
  0
CIRCLE
  5
AC
  8
1
 62
     7
 10
-35.35533905932737
 20
35.355339059327378
 30
0.0
 40
2.75
  0
CIRCLE
  5
AD
  8
1
 62
     7
 10
-35.355339059327378
 20
-35.355339059327349
 30
0.0
 40
2.75
  0
CIRCLE
  5
AE
  8
1
 62
     7
 10
35.355339059327349
 20
-35.355339059327378
 30
0.0
 40
2.75
  0
CIRCLE
  5
AF
  8
1
 62
     7
 10
306.35533905932732
 20
35.35533905932737
 30
0.0
 40
2.75
  0
CIRCLE
  5
B0
  8
1
 62
     7
 10
306.35533905932732
 20
-35.355339059327378
 30
0.0
 40
2.75
  0
CIRCLE
  5
B1
  8
1
 62
     7
 10
235.64466094067259
 20
-35.355339059327349
 30
0.0
 40
2.75
  0
CIRCLE
  5
B2
  8
1
 62
     7
 10
235.64466094067259
 20
35.355339059327378
 30
0.0
 40
2.75
  0
CIRCLE
  5
B3
  8
1
 62
     7
 10
271.0
 20
0.0
 30
0.0
 40
27.0
  0
CIRCLE
  5
B4
  8
1
 62
     7
 10
271.0
 20
0.0
 30
0.0
 40
6.0
  0
CIRCLE
  5
B5
  8
1
 62
     7
 10
268.7582364885991
 20
-7.2633137769387881
 30
0.0
 40
0.8999999999999772
  0
CIRCLE
  5
B6
  8
1
 62
     7
 10
273.2417635114009
 20
-7.2633137769387881
 30
0.0
 40
0.8999999999999772
  0
CIRCLE
  5
B7
  8
1
 62
     7
 10
-2.2417635114008831
 20
-7.2633137769387881
 30
0.0
 40
0.9000000000000054
  0
CIRCLE
  5
B8
  8
1
 62
     7
 10
2.2417635114008689
 20
-7.2633137769387881
 30
0.0
 40
0.900000000000006
  0
TEXT
  5
BA
  8
1
 62
     7
 10
-63.895877180337322
 20
84.885015136225988
 30
0.0
 40
5.0
  1
OPB 40N
 41
0.9
  7
SIMPLEX
 72
     1
 11
-49.217305751765899
 21
84.885015136225988
 31
0.0
  0
ENDSEC
  0
EOF
