  0
SECTION
  2
HEADER
  9
$ACADVER
  1
AC1009
  9
$INSBASE
 10
0.0
 20
0.0
 30
0.0
  9
$EXTMIN
 10
-69.164844313103671
 20
-64.000000000000043
 30
0.0
  9
$EXTMAX
 10
366.99999999999977
 20
97.024974772956583
 30
0.0
  9
$LIMMIN
 10
-70.023112052366386
 20
-64.000000000000043
  9
$LIMMAX
 10
366.99999999999977
 20
97.024974772956512
  9
$ORTHOMODE
 70
     0
  9
$REGENMODE
 70
     1
  9
$FILLMODE
 70
     1
  9
$QTEXTMODE
 70
     0
  9
$MIRRTEXT
 70
     1
  9
$DRAGMODE
 70
     2
  9
$LTSCALE
 40
1.0
  9
$OSMODE
 70
    37
  9
$ATTMODE
 70
     1
  9
$TEXTSIZE
 40
3.5
  9
$TRACEWID
 40
0.5
  9
$TEXTSTYLE
  7
STANDARD
  9
$CLAYER
  8
0
  9
$CELTYPE
  6
BYLAYER
  9
$CECOLOR
 62
   256
  9
$DIMSCALE
 40
1.0
  9
$DIMASZ
 40
0.18
  9
$DIMEXO
 40
0.0625
  9
$DIMDLI
 40
0.38
  9
$DIMRND
 40
0.0
  9
$DIMDLE
 40
0.0
  9
$DIMEXE
 40
0.18
  9
$DIMTP
 40
0.0
  9
$DIMTM
 40
0.0
  9
$DIMTXT
 40
0.18
  9
$DIMCEN
 40
0.09
  9
$DIMTSZ
 40
0.0
  9
$DIMTOL
 70
     0
  9
$DIMLIM
 70
     0
  9
$DIMTIH
 70
     1
  9
$DIMTOH
 70
     1
  9
$DIMSE1
 70
     0
  9
$DIMSE2
 70
     0
  9
$DIMTAD
 70
     0
  9
$DIMZIN
 70
     0
  9
$DIMBLK
  1

  9
$DIMASO
 70
     1
  9
$DIMSHO
 70
     1
  9
$DIMPOST
  1

  9
$DIMAPOST
  1

  9
$DIMALT
 70
     0
  9
$DIMALTD
 70
     2
  9
$DIMALTF
 40
25.399999999999999
  9
$DIMLFAC
 40
1.0
  9
$DIMTOFL
 70
     0
  9
$DIMTVP
 40
0.0
  9
$DIMTIX
 70
     0
  9
$DIMSOXD
 70
     0
  9
$DIMSAH
 70
     0
  9
$DIMBLK1
  1

  9
$DIMBLK2
  1

  9
$DIMSTYLE
  2
STANDARD
  9
$DIMCLRD
 70
     0
  9
$DIMCLRE
 70
     0
  9
$DIMCLRT
 70
     0
  9
$DIMTFAC
 40
1.0
  9
$DIMGAP
 40
0.09
  9
$LUNITS
 70
     2
  9
$LUPREC
 70
     4
  9
$SKETCHINC
 40
0.1
  9
$FILLETRAD
 40
2.0
  9
$AUNITS
 70
     0
  9
$AUPREC
 70
     0
  9
$MENU
  1
ACAD
  9
$ELEVATION
 40
0.0
  9
$PELEVATION
 40
0.0
  9
$THICKNESS
 40
0.0
  9
$LIMCHECK
 70
     0
  9
$BLIPMODE
 70
     0
  9
$CHAMFERA
 40
0.0
  9
$CHAMFERB
 40
0.0
  9
$SKPOLY
 70
     0
  9
$TDCREATE
 40
2452095.120143055
  9
$TDUPDATE
 40
2452095.1207285868
  9
$TDINDWG
 40
0.0006039352
  9
$TDUSRTIMER
 40
0.0006039352
  9
$USRTIMER
 70
     1
  9
$ANGBASE
 50
0.0
  9
$ANGDIR
 70
     0
  9
$PDMODE
 70
     0
  9
$PDSIZE
 40
0.0
  9
$PLINEWID
 40
0.0
  9
$COORDS
 70
     1
  9
$SPLFRAME
 70
     0
  9
$SPLINETYPE
 70
     6
  9
$SPLINESEGS
 70
     8
  9
$ATTDIA
 70
     0
  9
$ATTREQ
 70
     1
  9
$HANDLING
 70
 10241
  9
$HANDSEED
  5
C7
  9
$SURFTAB1
 70
     6
  9
$SURFTAB2
 70
     6
  9
$SURFTYPE
 70
     6
  9
$SURFU
 70
     6
  9
$SURFV
 70
     6
  9
$UCSNAME
  2

  9
$UCSORG
 10
0.0
 20
0.0
 30
0.0
  9
$UCSXDIR
 10
1.0
 20
0.0
 30
0.0
  9
$UCSYDIR
 10
0.0
 20
1.0
 30
0.0
  9
$PUCSNAME
  2

  9
$PUCSORG
 10
0.0
 20
0.0
 30
0.0
  9
$PUCSXDIR
 10
1.0
 20
0.0
 30
0.0
  9
$PUCSYDIR
 10
0.0
 20
1.0
 30
0.0
  9
$USERI1
 70
     0
  9
$USERI2
 70
     0
  9
$USERI3
 70
     0
  9
$USERI4
 70
     0
  9
$USERI5
 70
     0
  9
$USERR1
 40
0.0
  9
$USERR2
 40
0.0
  9
$USERR3
 40
0.0
  9
$USERR4
 40
0.0
  9
$USERR5
 40
0.0
  9
$WORLDVIEW
 70
     1
  9
$SHADEDGE
 70
     3
  9
$SHADEDIF
 70
    70
  9
$TILEMODE
 70
     1
  9
$MAXACTVP
 70
    64
  9
$PLIMCHECK
 70
     0
  9
$PEXTMIN
 10
1.0000000000000000E+020
 20
1.0000000000000000E+020
 30
1.0000000000000000E+020
  9
$PEXTMAX
 10
-1.0000000000000000E+020
 20
-1.0000000000000000E+020
 30
-1.0000000000000000E+020
  9
$PLIMMIN
 10
0.0
 20
0.0
  9
$PLIMMAX
 10
12.0
 20
9.0
  9
$UNITMODE
 70
     0
  9
$VISRETAIN
 70
     1
  9
$PLINEGEN
 70
     0
  9
$PSLTSCALE
 70
     1
  0
ENDSEC
  0
SECTION
  2
TABLES
  0
TABLE
  2
VPORT
 70
     2
  0
VPORT
  2
*ACTIVE
 70
     0
 10
0.0
 20
0.0
 11
1.0
 21
1.0
 12
-39.092768643638493
 22
88.410650194795835
 13
0.0
 23
0.0
 14
1.0
 24
1.0
 15
0.0
 25
0.0
 16
0.0
 26
0.0
 36
1.0
 17
0.0
 27
0.0
 37
0.0
 40
9.0000000946607752
 41
2.4144144144144142
 42
50.0
 43
0.0
 44
0.0
 50
0.0
 51
0.0
 71
     0
 72
   100
 73
     1
 74
     1
 75
     0
 76
     0
 77
     0
 78
     0
  0
ENDTAB
  0
TABLE
  2
LTYPE
 70
     9
  0
LTYPE
  2
CONTINUOUS
 70
     0
  3
Solid line
 72
    65
 73
     0
 40
0.0
  0
LTYPE
  2
BORDER
 70
     0
  3
__ __ . __ __ .
 72
    65
 73
     6
 40
20.126064370832651
 49
5.7503041059521864
 49
-2.8751520529760932
 49
5.7503041059521864
 49
-2.8751520529760932
 49
0.0
 49
-2.8751520529760932
  0
LTYPE
  2
CENTER
 70
     0
  3
____ _ ____ _
 72
    65
 73
     4
 40
23.001216423808749
 49
14.375760264880469
 49
-2.8751520529760932
 49
2.8751520529760932
 49
-2.8751520529760932
  0
LTYPE
  2
DASHDOT
 70
     0
  3
__ . __ . __ .
 72
    65
 73
     4
 40
11.50060821190436
 49
5.7503041059521864
 49
-2.8751520529760932
 49
0.0
 49
-2.8751520529760932
  0
LTYPE
  2
DASHED
 70
     0
  3
__ __ __ __ __
 72
    65
 73
     2
 40
8.6254561589282801
 49
5.7503041059521864
 49
-2.8751520529760932
  0
LTYPE
  2
DIVIDE
 70
     0
  3
__ . . __ . . 
 72
    65
 73
     6
 40
14.375760264880469
 49
5.7503041059521864
 49
-2.8751520529760932
 49
0.0
 49
-2.8751520529760932
 49
0.0
 49
-2.8751520529760932
  0
LTYPE
  2
DOT
 70
     0
  3
..............
 72
    65
 73
     4
 40
5.7503041059521864
 49
0.0
 49
-2.8751520529760932
 49
0.0
 49
-2.8751520529760932
  0
LTYPE
  2
HIDDEN
 70
     0
  3
_ _ _ _ _ _ _
 72
    65
 73
     2
 40
4.3127280794641401
 49
2.8751520529760932
 49
-1.4375760264880471
  0
LTYPE
  2
PHANTOM
 70
     0
  3
_____ _ _ _____ _ _ 
 72
    65
 73
     6
 40
28.751520529760921
 49
14.375760264880469
 49
-2.8751520529760932
 49
2.8751520529760932
 49
-2.8751520529760932
 49
2.8751520529760932
 49
-2.8751520529760932
  0
ENDTAB
  0
TABLE
  2
LAYER
 70
     2
  0
LAYER
  2
0
 70
     0
 62
     7
  6
CONTINUOUS
  0
LAYER
  2
1
 70
     0
 62
     7
  6
CONTINUOUS
  0
ENDTAB
  0
TABLE
  2
STYLE
 70
     4
  0
STYLE
  2
STANDARD
 70
     0
 40
0.0
 41
1.0
 50
0.0
 71
     0
 42
3.5
  3
txt
  4

  0
STYLE
  2
SIMPLEX
 70
     0
 40
0.0
 41
1.0
 50
0.0
 71
     0
 42
3.5
  3
simplex
  4

  0
STYLE
  2
COMPLEX
 70
     0
 40
0.0
 41
1.0
 50
0.0
 71
     0
 42
3.5
  3
complex
  4

  0
STYLE
  2
ITALIC
 70
     0
 40
0.0
 41
1.0
 50
0.0
 71
     0
 42
3.5
  3
italic
  4

  0
ENDTAB
  0
TABLE
  2
VIEW
 70
     0
  0
ENDTAB
  0
TABLE
  2
UCS
 70
     0
  0
ENDTAB
  0
TABLE
  2
APPID
 70
     1
  0
APPID
  2
ACAD
 70
     0
  0
ENDTAB
  0
TABLE
  2
DIMSTYLE
 70
     1
  0
DIMSTYLE
  2
STANDARD
 70
     0
  3

  4

  5

  6

  7

 40
1.0
 41
0.18
 42
0.0625
 43
0.38
 44
0.18
 45
0.0
 46
0.0
 47
0.0
 48
0.0
140
0.18
141
0.09
142
0.0
143
25.399999999999999
144
1.0
145
0.0
146
1.0
147
0.09
 71
     0
 72
     0
 73
     1
 74
     1
 75
     0
 76
     0
 77
     0
 78
     0
170
     0
171
     2
172
     0
173
     0
174
     0
175
     0
176
     0
177
     0
178
     0
  0
ENDTAB
  0
ENDSEC
  0
SECTION
  2
BLOCKS
  0
BLOCK
  8
0
  2
$MODEL_SPACE
 70
     0
 10
0.0
 20
0.0
 30
0.0
  3
$MODEL_SPACE
  1

  0
ENDBLK
  5
20
  8
0
  0
BLOCK
 67
     1
  8
0
  2
$PAPER_SPACE
 70
     0
 10
0.0
 20
0.0
 30
0.0
  3
$PAPER_SPACE
  1

  0
ENDBLK
  5
1C
 67
     1
  8
0
  0
ENDSEC
  0
SECTION
  2
ENTITIES
  0
LINE
  5
33
  8
1
 62
     7
 10
307.39999999999981
 20
-8.2221312617757008
 30
0.0
 11
307.39999999999981
 21
-8.9672618810377873
 31
0.0
  0
LINE
  5
34
  8
1
 62
     7
 10
303.69999999999982
 20
-10.96726188103778
 30
0.0
 11
305.39999999999981
 21
-10.96726188103778
 31
0.0
  0
LINE
  5
35
  8
1
 62
     7
 10
303.69999999999982
 20
-10.96726188103778
 30
0.0
 11
303.69999999999982
 21
-7.4672618810377864
 31
0.0
  0
LINE
  5
36
  8
1
 62
     7
 10
302.29999999999973
 20
-7.4672618810377864
 30
0.0
 11
302.29999999999973
 21
-10.96726188103778
 31
0.0
  0
LINE
  5
37
  8
1
 62
     7
 10
300.59999999999991
 20
-10.96726188103778
 30
0.0
 11
302.29999999999973
 21
-10.96726188103778
 31
0.0
  0
LINE
  5
38
  8
1
 62
     7
 10
298.59999999999991
 20
-8.9672618810377873
 30
0.0
 11
298.59999999999991
 21
-8.2221312617757008
 31
0.0
  0
LINE
  5
39
  8
1
 62
     7
 10
4.4000000000000048
 20
-8.2221312617757008
 30
0.0
 11
4.4000000000000048
 21
-8.9672618810377873
 31
0.0
  0
LINE
  5
3A
  8
1
 62
     7
 10
0.700000000000003
 20
-10.96726188103778
 30
0.0
 11
2.4000000000000061
 21
-10.96726188103778
 31
0.0
  0
LINE
  5
3B
  8
1
 62
     7
 10
0.700000000000003
 20
-10.96726188103778
 30
0.0
 11
0.700000000000003
 21
-7.4672618810377864
 31
0.0
  0
LINE
  5
3C
  8
1
 62
     7
 10
-0.700000000000003
 20
-7.4672618810377864
 30
0.0
 11
-0.700000000000003
 21
-10.96726188103778
 31
0.0
  0
LINE
  5
3D
  8
1
 62
     7
 10
-2.4000000000000061
 20
-10.96726188103778
 30
0.0
 11
-0.700000000000003
 21
-10.96726188103778
 31
0.0
  0
LINE
  5
3E
  8
1
 62
     7
 10
-4.4000000000000048
 20
-8.9672618810377873
 30
0.0
 11
-4.4000000000000048
 21
-8.2221312617757008
 31
0.0
  0
LINE
  5
3F
  8
1
  6
DASHDOT
 62
     3
 10
101.0
 20
0.0
 30
0.0
 11
104.0
 21
0.0
 31
0.0
  0
LINE
  5
40
  8
1
  6
DASHDOT
 62
     3
 10
198.9999999999998
 20
0.0
 30
0.0
 11
201.9999999999998
 21
0.0
 31
0.0
  0
LINE
  5
41
  8
1
 62
     7
 10
297.49999999999977
 20
5.0990195135927836
 30
0.0
 11
297.49999999999977
 21
-5.0990195135927836
 31
0.0
  0
LINE
  5
42
  8
1
 62
     7
 10
308.09901951359262
 20
5.5
 30
0.0
 11
297.90098048640698
 21
5.5
 31
0.0
  0
LINE
  5
43
  8
1
 62
     7
 10
106.0
 20
-6.9999999999999991
 30
0.0
 11
105.84999999999999
 21
-6.9999999999999991
 31
0.0
  0
LINE
  5
44
  8
1
 62
     7
 10
156.15000000000001
 20
-7.0
 30
0.0
 11
156.0
 21
-7.0
 31
0.0
  0
LINE
  5
45
  8
1
 62
     7
 10
156.0
 20
7.0
 30
0.0
 11
156.15000000000001
 21
7.0
 31
0.0
  0
LINE
  5
46
  8
1
 62
     7
 10
106.0
 20
-10.96726188103778
 30
0.0
 11
107.0
 21
-10.96726188103778
 31
0.0
  0
LINE
  5
47
  8
1
 62
     7
 10
106.0
 20
9.2999999999999972
 30
0.0
 11
107.0
 21
9.2999999999999972
 31
0.0
  0
LINE
  5
48
  8
1
 62
     7
 10
106.0
 20
9.2999999999999972
 30
0.0
 11
106.0
 21
-10.96726188103778
 31
0.0
  0
LINE
  5
49
  8
1
 62
     7
 10
105.84999999999999
 20
7.5
 30
0.0
 11
105.84999999999999
 21
-7.5
 31
0.0
  0
LINE
  5
4A
  8
1
 62
     7
 10
104.0
 20
-7.5
 30
0.0
 11
104.0
 21
7.5
 31
0.0
  0
LINE
  5
4B
  8
1
 62
     7
 10
105.84999999999999
 20
7.0
 30
0.0
 11
106.0
 21
7.0
 31
0.0
  0
LINE
  5
4C
  8
1
 62
     7
 10
104.0
 20
7.5
 30
0.0
 11
105.84999999999999
 21
7.5
 31
0.0
  0
LINE
  5
4D
  8
1
 62
     7
 10
105.84999999999999
 20
-7.5
 30
0.0
 11
104.0
 21
-7.5
 31
0.0
  0
LINE
  5
4E
  8
1
 62
     7
 10
156.0
 20
-10.96726188103778
 30
0.0
 11
156.0
 21
9.2999999999999972
 31
0.0
  0
LINE
  5
4F
  8
1
 62
     7
 10
156.0
 20
-10.96726188103778
 30
0.0
 11
155.0
 21
-10.96726188103778
 31
0.0
  0
LINE
  5
50
  8
1
 62
     7
 10
156.0
 20
9.2999999999999972
 30
0.0
 11
155.0
 21
9.2999999999999972
 31
0.0
  0
LINE
  5
51
  8
1
 62
     7
 10
156.15000000000001
 20
7.5
 30
0.0
 11
156.15000000000001
 21
-7.5
 31
0.0
  0
LINE
  5
52
  8
1
 62
     7
 10
156.15000000000001
 20
7.5
 30
0.0
 11
178.9999999999998
 21
7.5
 31
0.0
  0
LINE
  5
53
  8
1
 62
     7
 10
198.9999999999998
 20
-7.5
 30
0.0
 11
156.15000000000001
 21
-7.5
 31
0.0
  0
LINE
  5
54
  8
1
 62
     7
 10
198.9999999999998
 20
5.5
 30
0.0
 11
198.9999999999998
 21
-7.5
 31
0.0
  0
LINE
  5
55
  8
1
 62
     7
 10
178.9999999999998
 20
7.5
 30
0.0
 11
178.9999999999998
 21
5.5
 31
0.0
  0
LINE
  5
56
  8
1
 62
     7
 10
178.9999999999998
 20
5.5
 30
0.0
 11
198.9999999999998
 21
5.5
 31
0.0
  0
LINE
  5
57
  8
1
 62
     7
 10
198.9999999999998
 20
5.0990195135927916
 30
0.0
 11
178.9999999999998
 21
5.0990195135927916
 31
0.0
  0
LINE
  5
58
  8
1
 62
     7
 10
178.9999999999998
 20
5.0990195135927916
 30
0.0
 11
178.9999999999998
 21
-5.0990195135927916
 31
0.0
  0
LINE
  5
59
  8
1
 62
     7
 10
178.9999999999998
 20
-5.0990195135927916
 30
0.0
 11
198.9999999999998
 21
-5.0990195135927916
 31
0.0
  0
LINE
  5
5A
  8
1
 62
     3
 10
198.9999999999998
 20
5.0990195135927916
 30
0.0
 11
178.9999999999998
 21
-5.0990195135927916
 31
0.0
  0
LINE
  5
5B
  8
1
 62
     3
 10
178.9999999999998
 20
5.0990195135927916
 30
0.0
 11
198.9999999999998
 21
-5.0990195135927916
 31
0.0
  0
LINE
  5
5C
  8
1
 62
     7
 10
-2.9999999999999978
 20
49.90991885387114
 30
0.0
 11
-2.9999999999999978
 21
50.799999999999997
 31
0.0
  0
LINE
  5
5D
  8
1
 62
     7
 10
143.0
 20
-50.0
 30
0.0
 11
107.0
 21
-50.0
 31
0.0
  0
LINE
  5
5E
  8
1
 62
     7
 10
143.0
 20
64.0
 30
0.0
 11
143.0
 21
-64.0
 31
0.0
  0
LINE
  5
5F
  8
1
 62
     7
 10
155.0
 20
-49.0
 30
0.0
 11
155.0
 21
49.0
 31
0.0
  0
LINE
  5
60
  8
1
 62
     7
 10
149.0
 20
-49.0
 30
0.0
 11
155.0
 21
-49.0
 31
0.0
  0
LINE
  5
61
  8
1
 62
     7
 10
149.0
 20
49.0
 30
0.0
 11
155.0
 21
49.0
 31
0.0
  0
LINE
  5
62
  8
1
 62
     7
 10
149.0
 20
64.0
 30
0.0
 11
149.0
 21
-64.0
 31
0.0
  0
LINE
  5
63
  8
1
 62
     7
 10
107.0
 20
50.0
 30
0.0
 11
143.0
 21
50.0
 31
0.0
  0
LINE
  5
64
  8
1
 62
     7
 10
107.0
 20
50.0
 30
0.0
 11
107.0
 21
-50.0
 31
0.0
  0
LINE
  5
65
  8
1
 62
     7
 10
149.0
 20
64.0
 30
0.0
 11
143.0
 21
64.0
 31
0.0
  0
LINE
  5
66
  8
1
 62
     7
 10
143.0
 20
-64.0
 30
0.0
 11
149.0
 21
-64.0
 31
0.0
  0
LINE
  5
67
  8
1
  6
DASHDOT
 62
     3
 10
-1.5
 20
0.0
 30
0.0
 11
1.5
 21
0.0
 31
0.0
  0
LINE
  5
68
  8
1
  6
DASHDOT
 62
     3
 10
0.0
 20
1.5
 30
0.0
 11
0.0
 21
-1.5
 31
0.0
  0
LINE
  5
69
  8
1
  6
DASHDOT
 62
     3
 10
301.49999999999977
 20
0.0
 30
0.0
 11
304.49999999999977
 21
0.0
 31
0.0
  0
LINE
  5
6A
  8
1
  6
DASHDOT
 62
     3
 10
302.99999999999977
 20
1.5
 30
0.0
 11
302.99999999999977
 21
-1.5
 31
0.0
  0
LINE
  5
6B
  8
1
  6
DASHDOT
 62
     3
 10
43.31029034767603
 20
43.31029034767603
 30
0.0
 11
37.299882707590378
 21
37.299882707590378
 31
0.0
  0
LINE
  5
6C
  8
1
  6
DASHDOT
 62
     3
 10
-43.31029034767603
 20
43.31029034767603
 30
0.0
 11
-37.299882707590378
 21
37.299882707590378
 31
0.0
  0
LINE
  5
6D
  8
1
  6
DASHDOT
 62
     3
 10
-43.31029034767603
 20
-43.310290347676023
 30
0.0
 11
-37.299882707590392
 21
-37.299882707590363
 31
0.0
  0
LINE
  5
6E
  8
1
  6
DASHDOT
 62
     3
 10
43.310290347676023
 20
-43.31029034767603
 30
0.0
 11
37.299882707590363
 21
-37.299882707590392
 31
0.0
  0
LINE
  5
6F
  8
1
  6
DASHDOT
 62
     3
 10
346.31029034767568
 20
43.31029034767603
 30
0.0
 11
340.29988270759031
 21
37.299882707590378
 31
0.0
  0
LINE
  5
70
  8
1
  6
DASHDOT
 62
     3
 10
346.31029034767568
 20
-43.31029034767603
 30
0.0
 11
340.29988270759031
 21
-37.299882707590392
 31
0.0
  0
LINE
  5
71
  8
1
  6
DASHDOT
 62
     3
 10
259.68970965232393
 20
43.31029034767603
 30
0.0
 11
265.70011729240952
 21
37.299882707590378
 31
0.0
  0
LINE
  5
72
  8
1
  6
DASHDOT
 62
     3
 10
259.68970965232381
 20
-43.310290347676023
 30
0.0
 11
265.70011729240952
 21
-37.299882707590363
 31
0.0
  0
LINE
  5
73
  8
1
 62
     3
 10
1.3100000000000009
 20
82.0
 30
0.0
 11
1.3100000000000009
 21
79.0
 31
0.0
  0
LINE
  5
74
  8
1
 62
     3
 10
0.5300000000000296
 20
79.0
 30
0.0
 11
0.5300000000000296
 21
82.0
 31
0.0
  0
LINE
  5
75
  8
1
 62
     7
 10
0.0
 20
79.0
 30
0.0
 11
0.0
 21
50.800000000000018
 31
0.0
  0
LINE
  5
76
  8
1
 62
     7
 10
1.8399999999999741
 20
79.0
 30
0.0
 11
1.8399999999999741
 21
50.799999999999997
 31
0.0
  0
LINE
  5
77
  8
1
 62
     3
 10
-1.3099999999999961
 20
79.0
 30
0.0
 11
-1.3099999999999961
 21
82.0
 31
0.0
  0
LINE
  5
78
  8
1
 62
     3
 10
-0.5300000000000296
 20
82.0
 30
0.0
 11
-0.5300000000000296
 21
79.0
 31
0.0
  0
LINE
  5
79
  8
1
 62
     7
 10
-1.839999999999979
 20
79.0
 30
0.0
 11
-1.839999999999979
 21
50.799999999999997
 31
0.0
  0
LINE
  5
7A
  8
1
 62
     7
 10
-1.839999999999979
 20
79.0
 30
0.0
 11
1.8399999999999741
 21
79.0
 31
0.0
  0
LINE
  5
7B
  8
1
 62
     7
 10
-2.9999999999999978
 20
50.799999999999997
 30
0.0
 11
2.999999999999996
 21
50.800000000000047
 31
0.0
  0
LINE
  5
7C
  8
1
 62
     7
 10
2.999999999999996
 20
50.800000000000047
 30
0.0
 11
2.999999999999996
 21
49.909918853871119
 31
0.0
  0
LINE
  5
7D
  8
1
 62
     7
 10
142.0
 20
50.799999999999997
 30
0.0
 11
142.0
 21
50.0
 31
0.0
  0
LINE
  5
7E
  8
1
 62
     7
 10
136.0
 20
50.799999999999997
 30
0.0
 11
136.0
 21
50.0
 31
0.0
  0
LINE
  5
7F
  8
1
 62
     7
 10
136.0
 20
50.799999999999997
 30
0.0
 11
142.0
 21
50.799999999999997
 31
0.0
  0
LINE
  5
80
  8
1
 62
     7
 10
139.9199999999999
 20
79.0
 30
0.0
 11
139.9199999999999
 21
50.799999999999997
 31
0.0
  0
LINE
  5
81
  8
1
 62
     7
 10
138.08000000000001
 20
79.0
 30
0.0
 11
138.08000000000001
 21
50.799999999999997
 31
0.0
  0
LINE
  5
82
  8
1
 62
     7
 10
138.08000000000001
 20
79.0
 30
0.0
 11
139.9199999999999
 21
79.0
 31
0.0
  0
LINE
  5
83
  8
1
 62
     3
 10
138.61000000000001
 20
79.0
 30
0.0
 11
138.61000000000001
 21
82.0
 31
0.0
  0
LINE
  5
84
  8
1
 62
     3
 10
139.3899999999999
 20
82.0
 30
0.0
 11
139.3899999999999
 21
79.0
 31
0.0
  0
LINE
  5
85
  8
1
 62
     3
 10
304.30999999999977
 20
82.0
 30
0.0
 11
304.30999999999977
 21
79.0
 31
0.0
  0
LINE
  5
86
  8
1
 62
     3
 10
303.5299999999998
 20
79.0
 30
0.0
 11
303.5299999999998
 21
82.0
 31
0.0
  0
LINE
  5
87
  8
1
 62
     7
 10
301.15999999999991
 20
79.0
 30
0.0
 11
304.8399999999998
 21
79.0
 31
0.0
  0
LINE
  5
88
  8
1
 62
     7
 10
302.99999999999977
 20
79.0
 30
0.0
 11
302.99999999999977
 21
64.0
 31
0.0
  0
LINE
  5
89
  8
1
 62
     7
 10
304.8399999999998
 20
79.0
 30
0.0
 11
304.8399999999998
 21
63.973544532095453
 31
0.0
  0
LINE
  5
8A
  8
1
 62
     3
 10
301.68999999999983
 20
79.0
 30
0.0
 11
301.68999999999983
 21
82.0
 31
0.0
  0
LINE
  5
8B
  8
1
 62
     3
 10
302.46999999999991
 20
82.0
 30
0.0
 11
302.46999999999991
 21
79.0
 31
0.0
  0
LINE
  5
8C
  8
1
 62
     7
 10
301.15999999999991
 20
79.0
 30
0.0
 11
301.15999999999991
 21
63.973544532095453
 31
0.0
  0
LINE
  5
8D
  8
1
 62
     3
 10
303.91999999999967
 20
82.0
 30
0.0
 11
303.91999999999967
 21
79.0
 31
0.0
  0
LINE
  5
8E
  8
1
 62
     3
 10
302.07999999999993
 20
82.0
 30
0.0
 11
302.07999999999993
 21
79.0
 31
0.0
  0
LINE
  5
8F
  8
1
 62
     3
 10
139.0
 20
82.0
 30
0.0
 11
139.0
 21
79.0
 31
0.0
  0
LINE
  5
90
  8
1
 62
     3
 10
0.9200000000000724
 20
82.0
 30
0.0
 11
0.9200000000000724
 21
79.0
 31
0.0
  0
LINE
  5
91
  8
1
 62
     3
 10
-0.9199999999999592
 20
82.0
 30
0.0
 11
-0.9199999999999592
 21
79.0
 31
0.0
  0
ARC
  5
92
  8
1
 62
     7
 10
309.89999999999969
 20
-8.2221312617757008
 30
0.0
 40
2.499999999999948
 50
128.02981351104171
 51
180.0
  0
ARC
  5
93
  8
1
 62
     7
 10
305.39999999999981
 20
-8.9672618810377873
 30
0.0
 40
2.000000000000004
 50
270.0
 51
0.0
  0
ARC
  5
94
  8
1
 62
     7
 10
300.59999999999991
 20
-8.9672618810377873
 30
0.0
 40
2.0
 50
180.0
 51
270.0
  0
ARC
  5
95
  8
1
 62
     7
 10
296.0999999999998
 20
-8.2221312617757008
 30
0.0
 40
2.5
 50
0.0
 51
51.970186488957637
  0
ARC
  5
96
  8
1
 62
     7
 10
6.9000000000000048
 20
-8.2221312617757008
 30
0.0
 40
2.5
 50
128.02981351104279
 51
180.0
  0
ARC
  5
97
  8
1
 62
     7
 10
2.4000000000000061
 20
-8.9672618810377873
 30
0.0
 40
2.000000000000004
 50
270.0
 51
0.0
  0
ARC
  5
98
  8
1
 62
     7
 10
-2.4000000000000061
 20
-8.9672618810377873
 30
0.0
 40
2.0
 50
180.0
 51
270.0
  0
ARC
  5
99
  8
1
 62
     7
 10
-6.9000000000000048
 20
-8.2221312617757008
 30
0.0
 40
2.5
 50
0.0
 51
51.970186488956962
  0
ARC
  5
9A
  8
1
 62
     7
 10
302.99999999999977
 20
0.5999999999999944
 30
0.0
 40
8.7000000000000721
 50
308.02981351104353
 51
90.0
  0
ARC
  5
9B
  8
1
 62
     7
 10
302.99999999999977
 20
0.5999999999999944
 30
0.0
 40
8.7000000000000028
 50
90.0
 51
231.97018648895741
  0
ARC
  5
9C
  8
1
 62
     7
 10
0.0
 20
0.5999999999999944
 30
0.0
 40
8.7000000000000046
 50
308.02981351104307
 51
90.0
  0
ARC
  5
9D
  8
1
 62
     7
 10
0.0
 20
0.5999999999999944
 30
0.0
 40
8.7000000000000028
 50
90.0
 51
231.9701864889569
  0
ARC
  5
9E
  8
1
 62
     7
 10
0.0
 20
0.0
 30
0.0
 40
64.000000000000043
 50
91.647480671799244
 51
88.352519328200685
  0
ARC
  5
9F
  8
1
  6
DASHDOT
 62
     3
 10
0.0
 20
0.0
 30
0.0
 40
57.0
 50
40.726956058780843
 51
49.27304394121915
  0
ARC
  5
A0
  8
1
  6
DASHDOT
 62
     3
 10
0.0
 20
0.0
 30
0.0
 40
57.0
 50
130.72695605878079
 51
139.2730439412191
  0
ARC
  5
A1
  8
1
  6
DASHDOT
 62
     3
 10
0.0
 20
0.0
 30
0.0
 40
57.0
 50
220.72695605878079
 51
229.2730439412191
  0
ARC
  5
A2
  8
1
  6
DASHDOT
 62
     3
 10
0.0
 20
0.0
 30
0.0
 40
57.000000000000007
 50
310.72695605878079
 51
319.2730439412191
  0
ARC
  5
A3
  8
1
  6
DASHDOT
 62
     3
 10
302.99999999999977
 20
0.0
 30
0.0
 40
57.0
 50
40.726956058780843
 51
49.273043941219129
  0
ARC
  5
A4
  8
1
  6
DASHDOT
 62
     3
 10
302.99999999999977
 20
0.0
 30
0.0
 40
56.999999999999993
 50
310.72695605878062
 51
319.2730439412191
  0
ARC
  5
A5
  8
1
  6
DASHDOT
 62
     3
 10
302.99999999999977
 20
0.0
 30
0.0
 40
56.999999999999957
 50
130.7269560587805
 51
139.2730439412191
  0
ARC
  5
A6
  8
1
  6
DASHDOT
 62
     3
 10
302.99999999999977
 20
0.0
 30
0.0
 40
56.99999999999995
 50
220.7269560587809
 51
229.27304394121921
  0
CIRCLE
  5
A7
  8
1
 62
     7
 10
305.26610833968232
 20
-9.2564764383641993
 30
0.0
 40
0.9000000000000341
  0
CIRCLE
  5
A8
  8
1
 62
     7
 10
300.73389166031723
 20
-9.2564764383641993
 30
0.0
 40
0.9000000000000341
  0
CIRCLE
  5
A9
  8
1
 62
     7
 10
2.2661083396825181
 20
-9.2564764383641993
 30
0.0
 40
0.9000000000000047
  0
CIRCLE
  5
AA
  8
1
 62
     7
 10
-2.2661083396825181
 20
-9.2564764383641993
 30
0.0
 40
0.9000000000000049
  0
CIRCLE
  5
AB
  8
1
 62
     7
 10
0.0
 20
0.0
 30
0.0
 40
7.5
  0
CIRCLE
  5
AC
  8
1
 62
     7
 10
0.0
 20
0.0
 30
0.0
 40
16.0
  0
CIRCLE
  5
AD
  8
1
 62
     7
 10
0.0
 20
0.0
 30
0.0
 40
33.5
  0
CIRCLE
  5
AE
  8
1
 62
     7
 10
0.0
 20
0.0
 30
0.0
 40
45.0
  0
CIRCLE
  5
AF
  8
1
 62
     7
 10
0.0
 20
0.0
 30
0.0
 40
50.0
  0
CIRCLE
  5
B0
  8
1
 62
     7
 10
302.99999999999977
 20
0.0
 30
0.0
 40
7.5
  0
CIRCLE
  5
B1
  8
1
 62
     7
 10
302.99999999999977
 20
0.0
 30
0.0
 40
16.0
  0
CIRCLE
  5
B2
  8
1
 62
     7
 10
302.99999999999977
 20
0.0
 30
0.0
 40
33.5
  0
CIRCLE
  5
B3
  8
1
 62
     7
 10
302.99999999999977
 20
0.0
 30
0.0
 40
45.0
  0
CIRCLE
  5
B4
  8
1
 62
     7
 10
302.99999999999977
 20
0.0
 30
0.0
 40
49.0
  0
CIRCLE
  5
B5
  8
1
 62
     7
 10
302.99999999999977
 20
0.0
 30
0.0
 40
64.0
  0
CIRCLE
  5
B6
  8
1
 62
     7
 10
40.3050865276332
 20
40.3050865276332
 30
0.0
 40
3.25
  0
CIRCLE
  5
B7
  8
1
 62
     7
 10
-40.3050865276332
 20
40.3050865276332
 30
0.0
 40
3.25
  0
CIRCLE
  5
B8
  8
1
 62
     7
 10
-40.305086527633222
 20
-40.3050865276332
 30
0.0
 40
3.25
  0
CIRCLE
  5
B9
  8
1
 62
     7
 10
40.3050865276332
 20
-40.305086527633222
 30
0.0
 40
3.25
  0
CIRCLE
  5
BA
  8
1
 62
     7
 10
343.30508652763302
 20
40.3050865276332
 30
0.0
 40
3.25
  0
CIRCLE
  5
BB
  8
1
 62
     7
 10
343.30508652763302
 20
-40.305086527633222
 30
0.0
 40
3.25
  0
CIRCLE
  5
BC
  8
1
 62
     7
 10
262.69491347236652
 20
40.3050865276332
 30
0.0
 40
3.25
  0
CIRCLE
  5
BD
  8
1
 62
     7
 10
262.69491347236652
 20
-40.3050865276332
 30
0.0
 40
3.25
  0
TEXT
  5
BF
  8
1
 62
     7
 10
-69.164844313103671
 20
91.524974772956526
 30
0.0
 40
5.5
  1
OPB 80N
 41
0.9
  7
SIMPLEX
 72
     1
 11
-53.018415741675099
 21
91.524974772956526
 31
0.0
  0
ENDSEC
  0
EOF
