  0
SECTION
  2
HEADER
  9
$ACADVER
  1
AC1009
  9
$INSBASE
 10
0.0
 20
0.0
 30
0.0
  9
$EXTMIN
 10
-58.217191477295941
 20
-56.000000000000007
 30
0.0
  9
$EXTMAX
 10
345.00000000000011
 20
89.829717457114015
 30
0.0
  9
$LIMMIN
 10
-58.649334334438798
 20
-56.000000000000007
  9
$LIMMAX
 10
345.00000000000011
 20
89.829717457113986
  9
$ORTHOMODE
 70
     0
  9
$REGENMODE
 70
     1
  9
$FILLMODE
 70
     1
  9
$QTEXTMODE
 70
     0
  9
$MIRRTEXT
 70
     1
  9
$DRAGMODE
 70
     2
  9
$LTSCALE
 40
1.0
  9
$OSMODE
 70
    37
  9
$ATTMODE
 70
     1
  9
$TEXTSIZE
 40
3.5
  9
$TRACEWID
 40
0.5
  9
$TEXTSTYLE
  7
STANDARD
  9
$CLAYER
  8
0
  9
$CELTYPE
  6
BYLAYER
  9
$CECOLOR
 62
   256
  9
$DIMSCALE
 40
1.0
  9
$DIMASZ
 40
0.18
  9
$DIMEXO
 40
0.0625
  9
$DIMDLI
 40
0.38
  9
$DIMRND
 40
0.0
  9
$DIMDLE
 40
0.0
  9
$DIMEXE
 40
0.18
  9
$DIMTP
 40
0.0
  9
$DIMTM
 40
0.0
  9
$DIMTXT
 40
0.18
  9
$DIMCEN
 40
0.09
  9
$DIMTSZ
 40
0.0
  9
$DIMTOL
 70
     0
  9
$DIMLIM
 70
     0
  9
$DIMTIH
 70
     1
  9
$DIMTOH
 70
     1
  9
$DIMSE1
 70
     0
  9
$DIMSE2
 70
     0
  9
$DIMTAD
 70
     0
  9
$DIMZIN
 70
     0
  9
$DIMBLK
  1

  9
$DIMASO
 70
     1
  9
$DIMSHO
 70
     1
  9
$DIMPOST
  1

  9
$DIMAPOST
  1

  9
$DIMALT
 70
     0
  9
$DIMALTD
 70
     2
  9
$DIMALTF
 40
25.399999999999999
  9
$DIMLFAC
 40
1.0
  9
$DIMTOFL
 70
     0
  9
$DIMTVP
 40
0.0
  9
$DIMTIX
 70
     0
  9
$DIMSOXD
 70
     0
  9
$DIMSAH
 70
     0
  9
$DIMBLK1
  1

  9
$DIMBLK2
  1

  9
$DIMSTYLE
  2
STANDARD
  9
$DIMCLRD
 70
     0
  9
$DIMCLRE
 70
     0
  9
$DIMCLRT
 70
     0
  9
$DIMTFAC
 40
1.0
  9
$DIMGAP
 40
0.09
  9
$LUNITS
 70
     2
  9
$LUPREC
 70
     4
  9
$SKETCHINC
 40
0.1
  9
$FILLETRAD
 40
2.0
  9
$AUNITS
 70
     0
  9
$AUPREC
 70
     0
  9
$MENU
  1
ACAD
  9
$ELEVATION
 40
0.0
  9
$PELEVATION
 40
0.0
  9
$THICKNESS
 40
0.0
  9
$LIMCHECK
 70
     0
  9
$BLIPMODE
 70
     0
  9
$CHAMFERA
 40
0.0
  9
$CHAMFERB
 40
0.0
  9
$SKPOLY
 70
     0
  9
$TDCREATE
 40
2452095.1152747679
  9
$TDUPDATE
 40
2452095.1157121528
  9
$TDINDWG
 40
0.0004501157
  9
$TDUSRTIMER
 40
0.0004501157
  9
$USRTIMER
 70
     1
  9
$ANGBASE
 50
0.0
  9
$ANGDIR
 70
     0
  9
$PDMODE
 70
     0
  9
$PDSIZE
 40
0.0
  9
$PLINEWID
 40
0.0
  9
$COORDS
 70
     1
  9
$SPLFRAME
 70
     0
  9
$SPLINETYPE
 70
     6
  9
$SPLINESEGS
 70
     8
  9
$ATTDIA
 70
     0
  9
$ATTREQ
 70
     1
  9
$HANDLING
 70
 10241
  9
$HANDSEED
  5
E8
  9
$SURFTAB1
 70
     6
  9
$SURFTAB2
 70
     6
  9
$SURFTYPE
 70
     6
  9
$SURFU
 70
     6
  9
$SURFV
 70
     6
  9
$UCSNAME
  2

  9
$UCSORG
 10
0.0
 20
0.0
 30
0.0
  9
$UCSXDIR
 10
1.0
 20
0.0
 30
0.0
  9
$UCSYDIR
 10
0.0
 20
1.0
 30
0.0
  9
$PUCSNAME
  2

  9
$PUCSORG
 10
0.0
 20
0.0
 30
0.0
  9
$PUCSXDIR
 10
1.0
 20
0.0
 30
0.0
  9
$PUCSYDIR
 10
0.0
 20
1.0
 30
0.0
  9
$USERI1
 70
     0
  9
$USERI2
 70
     0
  9
$USERI3
 70
     0
  9
$USERI4
 70
     0
  9
$USERI5
 70
     0
  9
$USERR1
 40
0.0
  9
$USERR2
 40
0.0
  9
$USERR3
 40
0.0
  9
$USERR4
 40
0.0
  9
$USERR5
 40
0.0
  9
$WORLDVIEW
 70
     1
  9
$SHADEDGE
 70
     3
  9
$SHADEDIF
 70
    70
  9
$TILEMODE
 70
     1
  9
$MAXACTVP
 70
    64
  9
$PLIMCHECK
 70
     0
  9
$PEXTMIN
 10
1.0000000000000000E+020
 20
1.0000000000000000E+020
 30
1.0000000000000000E+020
  9
$PEXTMAX
 10
-1.0000000000000000E+020
 20
-1.0000000000000000E+020
 30
-1.0000000000000000E+020
  9
$PLIMMIN
 10
0.0
 20
0.0
  9
$PLIMMAX
 10
12.0
 20
9.0
  9
$UNITMODE
 70
     0
  9
$VISRETAIN
 70
     1
  9
$PLINEGEN
 70
     0
  9
$PSLTSCALE
 70
     1
  0
ENDSEC
  0
SECTION
  2
TABLES
  0
TABLE
  2
VPORT
 70
     2
  0
VPORT
  2
*ACTIVE
 70
     0
 10
0.0
 20
0.0
 11
1.0
 21
1.0
 12
-32.673838435701683
 22
76.155548548022693
 13
0.0
 23
0.0
 14
1.0
 24
1.0
 15
0.0
 25
0.0
 16
0.0
 26
0.0
 36
1.0
 17
0.0
 27
0.0
 37
0.0
 40
9.0000002540149353
 41
2.4144144144144142
 42
50.0
 43
0.0
 44
0.0
 50
0.0
 51
0.0
 71
     0
 72
   100
 73
     1
 74
     1
 75
     0
 76
     0
 77
     0
 78
     0
  0
ENDTAB
  0
TABLE
  2
LTYPE
 70
     9
  0
LTYPE
  2
CONTINUOUS
 70
     0
  3
Solid line
 72
    65
 73
     0
 40
0.0
  0
LTYPE
  2
BORDER
 70
     0
  3
__ __ . __ __ .
 72
    65
 73
     6
 40
18.589114081191259
 49
5.3111754517689329
 49
-2.655587725884466
 49
5.3111754517689329
 49
-2.655587725884466
 49
0.0
 49
-2.655587725884466
  0
LTYPE
  2
CENTER
 70
     0
  3
____ _ ____ _
 72
    65
 73
     4
 40
21.244701807075721
 49
13.27793862942233
 49
-2.655587725884466
 49
2.655587725884466
 49
-2.655587725884466
  0
LTYPE
  2
DASHDOT
 70
     0
  3
__ . __ . __ .
 72
    65
 73
     4
 40
10.62235090353786
 49
5.3111754517689329
 49
-2.655587725884466
 49
0.0
 49
-2.655587725884466
  0
LTYPE
  2
DASHED
 70
     0
  3
__ __ __ __ __
 72
    65
 73
     2
 40
7.9667631776533998
 49
5.3111754517689329
 49
-2.655587725884466
  0
LTYPE
  2
DIVIDE
 70
     0
  3
__ . . __ . . 
 72
    65
 73
     6
 40
13.27793862942233
 49
5.3111754517689329
 49
-2.655587725884466
 49
0.0
 49
-2.655587725884466
 49
0.0
 49
-2.655587725884466
  0
LTYPE
  2
DOT
 70
     0
  3
..............
 72
    65
 73
     4
 40
5.3111754517689329
 49
0.0
 49
-2.655587725884466
 49
0.0
 49
-2.655587725884466
  0
LTYPE
  2
HIDDEN
 70
     0
  3
_ _ _ _ _ _ _
 72
    65
 73
     2
 40
3.9833815888266999
 49
2.655587725884466
 49
-1.327793862942233
  0
LTYPE
  2
PHANTOM
 70
     0
  3
_____ _ _ _____ _ _ 
 72
    65
 73
     6
 40
26.55587725884466
 49
13.27793862942233
 49
-2.655587725884466
 49
2.655587725884466
 49
-2.655587725884466
 49
2.655587725884466
 49
-2.655587725884466
  0
ENDTAB
  0
TABLE
  2
LAYER
 70
     2
  0
LAYER
  2
0
 70
     0
 62
     7
  6
CONTINUOUS
  0
LAYER
  2
1
 70
     0
 62
     7
  6
CONTINUOUS
  0
ENDTAB
  0
TABLE
  2
STYLE
 70
     4
  0
STYLE
  2
STANDARD
 70
     0
 40
0.0
 41
1.0
 50
0.0
 71
     0
 42
3.5
  3
txt
  4

  0
STYLE
  2
SIMPLEX
 70
     0
 40
0.0
 41
1.0
 50
0.0
 71
     0
 42
3.5
  3
simplex
  4

  0
STYLE
  2
COMPLEX
 70
     0
 40
0.0
 41
1.0
 50
0.0
 71
     0
 42
3.5
  3
complex
  4

  0
STYLE
  2
ITALIC
 70
     0
 40
0.0
 41
1.0
 50
0.0
 71
     0
 42
3.5
  3
italic
  4

  0
ENDTAB
  0
TABLE
  2
VIEW
 70
     0
  0
ENDTAB
  0
TABLE
  2
UCS
 70
     0
  0
ENDTAB
  0
TABLE
  2
APPID
 70
     1
  0
APPID
  2
ACAD
 70
     0
  0
ENDTAB
  0
TABLE
  2
DIMSTYLE
 70
     1
  0
DIMSTYLE
  2
STANDARD
 70
     0
  3

  4

  5

  6

  7

 40
1.0
 41
0.18
 42
0.0625
 43
0.38
 44
0.18
 45
0.0
 46
0.0
 47
0.0
 48
0.0
140
0.18
141
0.09
142
0.0
143
25.399999999999999
144
1.0
145
0.0
146
1.0
147
0.09
 71
     0
 72
     0
 73
     1
 74
     1
 75
     0
 76
     0
 77
     0
 78
     0
170
     0
171
     2
172
     0
173
     0
174
     0
175
     0
176
     0
177
     0
178
     0
  0
ENDTAB
  0
ENDSEC
  0
SECTION
  2
BLOCKS
  0
BLOCK
  8
0
  2
$MODEL_SPACE
 70
     0
 10
0.0
 20
0.0
 30
0.0
  3
$MODEL_SPACE
  1

  0
ENDBLK
  5
20
  8
0
  0
BLOCK
 67
     1
  8
0
  2
$PAPER_SPACE
 70
     0
 10
0.0
 20
0.0
 30
0.0
  3
$PAPER_SPACE
  1

  0
ENDBLK
  5
1C
 67
     1
  8
0
  0
ENDSEC
  0
SECTION
  2
ENTITIES
  0
LINE
  5
33
  8
1
  6
DASHDOT
 62
     3
 10
37.653436098183697
 20
-37.65343609818364
 30
0.0
 11
33.057242020471158
 21
-33.057242020471087
 31
0.0
  0
LINE
  5
34
  8
1
  6
DASHDOT
 62
     3
 10
-37.653436098183697
 20
-37.653436098183747
 30
0.0
 11
-33.057242020471222
 21
-33.057242020471179
 31
0.0
  0
LINE
  5
35
  8
1
  6
DASHDOT
 62
     3
 10
-37.653436098183697
 20
37.653436098183619
 30
0.0
 11
-33.057242020471222
 21
33.05724202047108
 31
0.0
  0
LINE
  5
36
  8
1
  6
DASHDOT
 62
     3
 10
37.653436098183697
 20
37.653436098183647
 30
0.0
 11
33.057242020471158
 21
33.057242020471101
 31
0.0
  0
LINE
  5
37
  8
1
 62
     3
 10
-0.9200000000000432
 20
80.0
 30
0.0
 11
-0.9200000000000432
 21
75.0
 31
0.0
  0
LINE
  5
38
  8
1
 62
     3
 10
0.9199999999999569
 20
75.0
 30
0.0
 11
0.9199999999999569
 21
80.0
 31
0.0
  0
LINE
  5
39
  8
1
 62
     3
 10
145.0
 20
80.0
 30
0.0
 11
145.0
 21
75.0
 31
0.0
  0
LINE
  5
3A
  8
1
 62
     3
 10
288.07999999999993
 20
80.0
 30
0.0
 11
288.07999999999993
 21
75.0
 31
0.0
  0
LINE
  5
3B
  8
1
 62
     3
 10
289.92000000000007
 20
75.0
 30
0.0
 11
289.92000000000007
 21
80.0
 31
0.0
  0
LINE
  5
3C
  8
1
  6
DASHDOT
 62
     3
 10
100.0000000000001
 20
2.9999999999999858
 30
0.0
 11
100.0000000000001
 21
-3.0000000000000129
 31
0.0
  0
LINE
  5
3D
  8
1
  6
DASHDOT
 62
     3
 10
189.0
 20
2.9999999999999858
 30
0.0
 11
189.0
 21
-3.0000000000000129
 31
0.0
  0
LINE
  5
3E
  8
1
  6
DASHDOT
 62
     3
 10
287.50000000000011
 20
0.0
 30
0.0
 11
290.50000000000011
 21
0.0
 31
0.0
  0
LINE
  5
3F
  8
1
  6
DASHDOT
 62
     3
 10
289.0
 20
1.5
 30
0.0
 11
289.0
 21
-1.499999999999992
 31
0.0
  0
LINE
  5
40
  8
1
  6
DASHDOT
 62
     3
 10
326.65343609818382
 20
37.653436098183647
 30
0.0
 11
322.05724202047128
 21
33.057242020471101
 31
0.0
  0
LINE
  5
41
  8
1
  6
DASHDOT
 62
     3
 10
251.34656390181641
 20
37.653436098183619
 30
0.0
 11
255.94275797952889
 21
33.05724202047108
 31
0.0
  0
LINE
  5
42
  8
1
  6
DASHDOT
 62
     3
 10
251.34656390181641
 20
-37.653436098183747
 30
0.0
 11
255.94275797952889
 21
-33.057242020471179
 31
0.0
  0
LINE
  5
43
  8
1
  6
DASHDOT
 62
     3
 10
326.65343609818382
 20
-37.65343609818364
 30
0.0
 11
322.05724202047128
 21
-33.057242020471087
 31
0.0
  0
LINE
  5
44
  8
1
 62
     7
 10
148.0
 20
43.669972906560993
 30
0.0
 11
148.0
 21
43.0
 31
0.0
  0
LINE
  5
45
  8
1
 62
     7
 10
142.0
 20
43.669972906560993
 30
0.0
 11
148.0
 21
43.669972906560993
 31
0.0
  0
LINE
  5
46
  8
1
 62
     7
 10
142.0
 20
43.669972906560993
 30
0.0
 11
142.0
 21
43.0
 31
0.0
  0
LINE
  5
47
  8
1
 62
     7
 10
290.84000000000032
 20
75.0
 30
0.0
 11
290.84000000000032
 21
55.955426489502109
 31
0.0
  0
LINE
  5
48
  8
1
 62
     7
 10
161.00000000000011
 20
43.0
 30
0.0
 11
176.0
 21
43.0
 31
0.0
  0
LINE
  5
49
  8
1
 62
     7
 10
161.00000000000011
 20
56.0
 30
0.0
 11
161.00000000000011
 21
-56.000000000000007
 31
0.0
  0
LINE
  5
4A
  8
1
 62
     7
 10
156.0
 20
56.0
 30
0.0
 11
161.00000000000011
 21
56.0
 31
0.0
  0
LINE
  5
4B
  8
1
 62
     7
 10
156.0
 20
56.0
 30
0.0
 11
156.0
 21
-56.000000000000007
 31
0.0
  0
LINE
  5
4C
  8
1
 62
     7
 10
117.0000000000001
 20
43.0
 30
0.0
 11
156.0
 21
43.0
 31
0.0
  0
LINE
  5
4D
  8
1
 62
     7
 10
156.0
 20
-42.999999999999993
 30
0.0
 11
117.0000000000001
 21
-43.0
 31
0.0
  0
LINE
  5
4E
  8
1
 62
     7
 10
161.00000000000011
 20
-56.000000000000007
 30
0.0
 11
156.0
 21
-56.000000000000007
 31
0.0
  0
LINE
  5
4F
  8
1
 62
     7
 10
176.0
 20
-43.0
 30
0.0
 11
161.00000000000011
 21
-42.999999999999993
 31
0.0
  0
LINE
  5
50
  8
1
 62
     7
 10
106.0
 20
-25.0
 30
0.0
 11
106.0
 21
25.0
 31
0.0
  0
LINE
  5
51
  8
1
 62
     7
 10
115.0000000000001
 20
-25.0
 30
0.0
 11
106.0
 21
-25.0
 31
0.0
  0
LINE
  5
52
  8
1
 62
     7
 10
106.0
 20
25.0
 30
0.0
 11
115.0000000000001
 21
25.0
 31
0.0
  0
LINE
  5
53
  8
1
 62
     7
 10
193.0
 20
-10.0
 30
0.0
 11
184.19999999999999
 21
-10.0
 31
0.0
  0
LINE
  5
54
  8
1
 62
     7
 10
193.0
 20
10.0
 30
0.0
 11
193.0
 21
-10.0
 31
0.0
  0
LINE
  5
55
  8
1
 62
     7
 10
184.19999999999999
 20
10.0
 30
0.0
 11
193.0
 21
10.0
 31
0.0
  0
LINE
  5
56
  8
1
 62
     7
 10
104.8
 20
-10.0
 30
0.0
 11
96.000000000000128
 21
-10.0
 31
0.0
  0
LINE
  5
57
  8
1
 62
     7
 10
96.000000000000128
 20
10.0
 30
0.0
 11
104.8
 21
10.0
 31
0.0
  0
LINE
  5
58
  8
1
 62
     7
 10
96.000000000000128
 20
-10.0
 30
0.0
 11
96.000000000000128
 21
10.0
 31
0.0
  0
LINE
  5
59
  8
1
 62
     7
 10
177.0
 20
-35.0
 30
0.0
 11
183.0
 21
-35.0
 31
0.0
  0
LINE
  5
5A
  8
1
 62
     7
 10
176.0
 20
-27.5
 30
0.0
 11
177.0
 21
-27.5
 31
0.0
  0
LINE
  5
5B
  8
1
  6
DASHDOT
 62
     3
 10
93.000000000000128
 20
0.0
 30
0.0
 11
103.0
 21
0.0
 31
0.0
  0
LINE
  5
5C
  8
1
 62
     7
 10
177.0
 20
27.5
 30
0.0
 11
176.0
 21
27.5
 31
0.0
  0
LINE
  5
5D
  8
1
 62
     7
 10
183.0
 20
35.0
 30
0.0
 11
177.0
 21
35.0
 31
0.0
  0
LINE
  5
5E
  8
1
 62
     7
 10
183.0000000000002
 20
12.000000000000011
 30
0.0
 11
184.19999999999999
 21
12.000000000000011
 31
0.0
  0
LINE
  5
5F
  8
1
 62
     7
 10
184.19999999999999
 20
12.000000000000011
 30
0.0
 11
184.19999999999999
 21
-13.367948635501691
 31
0.0
  0
LINE
  5
60
  8
1
 62
     7
 10
184.19999999999999
 20
-13.367948635501691
 30
0.0
 11
183.0000000000002
 21
-13.367948635501691
 31
0.0
  0
LINE
  5
61
  8
1
 62
     7
 10
106.0
 20
12.000000000000011
 30
0.0
 11
104.8
 21
12.000000000000011
 31
0.0
  0
LINE
  5
62
  8
1
 62
     7
 10
104.8
 20
12.000000000000011
 30
0.0
 11
104.8
 21
-13.367948635501691
 31
0.0
  0
LINE
  5
63
  8
1
 62
     7
 10
104.8
 20
-13.367948635501691
 30
0.0
 11
106.0
 21
-13.367948635501691
 31
0.0
  0
LINE
  5
64
  8
1
 62
     7
 10
117.0000000000001
 20
27.90000000000002
 30
0.0
 11
115.0000000000001
 21
27.899999999999999
 31
0.0
  0
LINE
  5
65
  8
1
 62
     7
 10
115.0000000000001
 20
27.899999999999999
 30
0.0
 11
115.0000000000001
 21
-30.199999999999999
 31
0.0
  0
LINE
  5
66
  8
1
 62
     7
 10
115.0000000000001
 20
-30.199999999999999
 30
0.0
 11
117.0000000000001
 21
-30.199999999999999
 31
0.0
  0
LINE
  5
67
  8
1
 62
     7
 10
117.0000000000001
 20
43.0
 30
0.0
 11
117.0000000000001
 21
-43.0
 31
0.0
  0
LINE
  5
68
  8
1
 62
     3
 10
290.31000000000012
 20
75.0
 30
0.0
 11
290.31000000000012
 21
80.0
 31
0.0
  0
LINE
  5
69
  8
1
 62
     3
 10
289.53000000000009
 20
80.0
 30
0.0
 11
289.53000000000009
 21
75.0
 31
0.0
  0
LINE
  5
6A
  8
1
 62
     7
 10
183.0
 20
35.0
 30
0.0
 11
183.0
 21
-35.0
 31
0.0
  0
LINE
  5
6B
  8
1
  6
DASHDOT
 62
     3
 10
289.0
 20
32.999999999999993
 30
0.0
 11
289.0
 21
27.0
 31
0.0
  0
LINE
  5
6C
  8
1
  6
DASHDOT
 62
     3
 10
289.0
 20
-32.999999999999943
 30
0.0
 11
289.0
 21
-27.00000000000005
 31
0.0
  0
LINE
  5
6D
  8
1
  6
DASHDOT
 62
     3
 10
323.46929824561431
 20
0.0000000000000351
 30
0.0
 11
317.46929824561431
 21
0.0000000000000401
 31
0.0
  0
LINE
  5
6E
  8
1
 62
     3
 10
287.69000000000023
 20
80.0
 30
0.0
 11
287.69000000000023
 21
75.0
 31
0.0
  0
LINE
  5
6F
  8
1
 62
     7
 10
287.16000000000008
 20
75.0
 30
0.0
 11
287.16000000000008
 21
55.955426489502138
 31
0.0
  0
LINE
  5
70
  8
1
 62
     7
 10
289.0
 20
75.0
 30
0.0
 11
289.0
 21
56.0
 31
0.0
  0
LINE
  5
71
  8
1
 62
     7
 10
145.91999999999999
 20
43.669972906560993
 30
0.0
 11
145.91999999999999
 21
75.0
 31
0.0
  0
LINE
  5
72
  8
1
 62
     7
 10
144.0800000000001
 20
43.669972906560993
 30
0.0
 11
144.08000000000001
 21
75.0
 31
0.0
  0
LINE
  5
73
  8
1
 62
     7
 10
176.0
 20
43.0
 30
0.0
 11
176.0
 21
-43.0
 31
0.0
  0
LINE
  5
74
  8
1
 62
     7
 10
177.0
 20
-35.0
 30
0.0
 11
177.0
 21
35.0
 31
0.0
  0
LINE
  5
75
  8
1
  6
DASHDOT
 62
     3
 10
186.00000000000011
 20
0.0
 30
0.0
 11
196.0
 21
0.0
 31
0.0
  0
LINE
  5
76
  8
1
 62
     7
 10
287.16000000000008
 20
75.0
 30
0.0
 11
290.84000000000032
 21
75.0
 31
0.0
  0
LINE
  5
77
  8
1
 62
     3
 10
288.47000000000008
 20
80.0
 30
0.0
 11
288.47000000000008
 21
75.0
 31
0.0
  0
LINE
  5
78
  8
1
 62
     7
 10
145.91999999999999
 20
75.0
 30
0.0
 11
144.08000000000001
 21
75.0
 31
0.0
  0
LINE
  5
79
  8
1
 62
     3
 10
145.3900000000001
 20
80.0
 30
0.0
 11
145.3900000000001
 21
75.0
 31
0.0
  0
LINE
  5
7A
  8
1
 62
     3
 10
144.6100000000001
 20
80.0
 30
0.0
 11
144.6100000000001
 21
75.0
 31
0.0
  0
LINE
  5
7B
  8
1
 62
     7
 10
1.8400000000000001
 20
75.0
 30
0.0
 11
1.8400000000000001
 21
43.669972906560957
 31
0.0
  0
LINE
  5
7C
  8
1
 62
     3
 10
1.3100000000000001
 20
75.0
 30
0.0
 11
1.3100000000000001
 21
80.0
 31
0.0
  0
LINE
  5
7D
  8
1
 62
     3
 10
0.5299999999999999
 20
80.0
 30
0.0
 11
0.5299999999999999
 21
75.0
 31
0.0
  0
LINE
  5
7E
  8
1
 62
     3
 10
-1.3100000000000041
 20
80.0
 30
0.0
 11
-1.3100000000000041
 21
75.0
 31
0.0
  0
LINE
  5
7F
  8
1
 62
     7
 10
-1.8400000000000001
 20
75.0
 30
0.0
 11
-1.8400000000000001
 21
43.669972906560957
 31
0.0
  0
LINE
  5
80
  8
1
 62
     7
 10
0.0
 20
75.0
 30
0.0
 11
0.0
 21
43.669972906560957
 31
0.0
  0
LINE
  5
81
  8
1
  6
DASHDOT
 62
     3
 10
-1.5
 20
0.0
 30
0.0
 11
1.5
 21
0.0
 31
0.0
  0
LINE
  5
82
  8
1
  6
DASHDOT
 62
     3
 10
0.0
 20
1.5
 30
0.0
 11
0.0
 21
-1.499999999999992
 31
0.0
  0
LINE
  5
83
  8
1
 62
     7
 10
-1.8400000000000001
 20
75.0
 30
0.0
 11
1.8400000000000001
 21
75.0
 31
0.0
  0
LINE
  5
84
  8
1
 62
     3
 10
-0.5299999999999999
 20
80.0
 30
0.0
 11
-0.5299999999999999
 21
75.0
 31
0.0
  0
LINE
  5
85
  8
1
 62
     7
 10
-3.0
 20
43.669972906560957
 30
0.0
 11
3.0
 21
43.669972906560957
 31
0.0
  0
LINE
  5
86
  8
1
 62
     7
 10
3.0
 20
43.669972906560957
 30
0.0
 11
3.0
 21
42.874685927665503
 31
0.0
  0
LINE
  5
87
  8
1
 62
     7
 10
-3.0
 20
43.669972906560957
 30
0.0
 11
-3.0
 21
42.874685927665503
 31
0.0
  0
LINE
  5
88
  8
1
  6
DASHDOT
 62
     3
 10
257.50000000000011
 20
0.0000000000000016
 30
0.0
 11
263.5
 21
0.0000000000000016
 31
0.0
  0
LINE
  5
89
  8
1
 62
     7
 10
284.00000000000011
 20
-10.829527310345391
 30
0.0
 11
284.00000000000011
 21
-11.167948635501681
 31
0.0
  0
LINE
  5
8A
  8
1
 62
     7
 10
286.19999999999999
 20
-13.367948635501691
 30
0.0
 11
288.2000000000001
 21
-13.367948635501691
 31
0.0
  0
LINE
  5
8B
  8
1
 62
     7
 10
288.2000000000001
 20
-9.9679486355016937
 30
0.0
 11
288.2000000000001
 21
-13.367948635501691
 31
0.0
  0
LINE
  5
8C
  8
1
 62
     7
 10
289.80000000000013
 20
-13.367948635501691
 30
0.0
 11
289.80000000000013
 21
-9.9679486355016937
 31
0.0
  0
LINE
  5
8D
  8
1
 62
     7
 10
289.80000000000013
 20
-13.367948635501691
 30
0.0
 11
291.80000000000013
 21
-13.367948635501691
 31
0.0
  0
LINE
  5
8E
  8
1
 62
     7
 10
294.00000000000011
 20
-11.167948635501681
 30
0.0
 11
294.00000000000011
 21
-10.829527310345391
 31
0.0
  0
LINE
  5
8F
  8
1
 62
     7
 10
-5.0
 20
-10.829527310345391
 30
0.0
 11
-5.0
 21
-11.167948635501681
 31
0.0
  0
LINE
  5
90
  8
1
 62
     7
 10
-2.7999999999999972
 20
-13.367948635501691
 30
0.0
 11
-0.7999999999999972
 21
-13.367948635501691
 31
0.0
  0
LINE
  5
91
  8
1
 62
     7
 10
-0.7999999999999972
 20
-9.9679486355016937
 30
0.0
 11
-0.7999999999999972
 21
-13.367948635501691
 31
0.0
  0
LINE
  5
92
  8
1
 62
     7
 10
0.7999999999999972
 20
-13.367948635501691
 30
0.0
 11
0.7999999999999972
 21
-9.9679486355016937
 31
0.0
  0
LINE
  5
93
  8
1
 62
     7
 10
0.7999999999999972
 20
-13.367948635501691
 30
0.0
 11
2.7999999999999972
 21
-13.367948635501691
 31
0.0
  0
LINE
  5
94
  8
1
 62
     7
 10
5.0
 20
-11.167948635501681
 30
0.0
 11
5.0
 21
-10.829527310345391
 31
0.0
  0
LINE
  5
95
  8
1
 62
     7
 10
-1.699999999999996
 20
-30.199999999999999
 30
0.0
 11
-1.699999999999996
 21
-24.942133028271659
 31
0.0
  0
LINE
  5
96
  8
1
 62
     7
 10
-1.699999999999996
 20
-30.199999999999999
 30
0.0
 11
-4.0
 21
-30.199999999999999
 31
0.0
  0
LINE
  5
97
  8
1
 62
     7
 10
-6.799999999999998
 20
-27.24836278441639
 30
0.0
 11
-6.799999999999998
 21
-27.400000000000009
 31
0.0
  0
LINE
  5
98
  8
1
 62
     7
 10
4.0
 20
-30.199999999999999
 30
0.0
 11
1.699999999999996
 21
-30.199999999999999
 31
0.0
  0
LINE
  5
99
  8
1
 62
     7
 10
6.7999999999999963
 20
-27.400000000000009
 30
0.0
 11
6.7999999999999963
 21
-27.24836278441639
 31
0.0
  0
LINE
  5
9A
  8
1
 62
     7
 10
1.699999999999996
 20
-24.942133028271659
 30
0.0
 11
1.699999999999996
 21
-30.199999999999999
 31
0.0
  0
LINE
  5
9B
  8
1
 62
     7
 10
109.0
 20
-25.0
 30
0.0
 11
109.0
 21
25.0
 31
0.0
  0
ARC
  5
9C
  8
1
  6
DASHDOT
 62
     3
 10
0.0
 20
0.0
 30
0.0
 40
49.999999999999957
 50
311.27511840093598
 51
318.72488159906391
  0
ARC
  5
9D
  8
1
  6
DASHDOT
 62
     3
 10
0.0
 20
0.0
 30
0.0
 40
50.0
 50
221.27511840093601
 51
228.72488159906391
  0
ARC
  5
9E
  8
1
  6
DASHDOT
 62
     3
 10
0.0
 20
0.0
 30
0.0
 40
50.0
 50
131.27511840093601
 51
138.72488159906399
  0
ARC
  5
9F
  8
1
  6
DASHDOT
 62
     3
 10
0.0
 20
0.0
 30
0.0
 40
50.0
 50
41.275118400936023
 51
48.724881599064027
  0
ARC
  5
A0
  8
1
  6
DASHDOT
 62
     3
 10
290.4692982456142
 20
0.0
 30
0.0
 40
30.000000000000028
 50
354.26803203480222
 51
5.7319679651977227
  0
ARC
  5
A1
  8
1
  6
DASHDOT
 62
     3
 10
289.0
 20
0.0
 30
0.0
 40
30.0
 50
264.26803203480227
 51
275.73196796519761
  0
ARC
  5
A2
  8
1
  6
DASHDOT
 62
     3
 10
289.0
 20
0.0
 30
0.0
 40
29.999999999999961
 50
84.268032034802374
 51
95.731967965197725
  0
ARC
  5
A3
  8
1
  6
DASHDOT
 62
     3
 10
289.0
 20
0.0
 30
0.0
 40
50.0
 50
41.275118400936023
 51
48.724881599064062
  0
ARC
  5
A4
  8
1
  6
DASHDOT
 62
     3
 10
289.0
 20
0.0
 30
0.0
 40
50.0
 50
131.27511840093601
 51
138.72488159906399
  0
ARC
  5
A5
  8
1
  6
DASHDOT
 62
     3
 10
289.0
 20
0.0
 30
0.0
 40
50.0
 50
221.27511840093601
 51
228.72488159906391
  0
ARC
  5
A6
  8
1
  6
DASHDOT
 62
     3
 10
289.0
 20
0.0
 30
0.0
 40
49.999999999999957
 50
311.27511840093598
 51
318.72488159906391
  0
ARC
  5
A7
  8
1
  6
DASHDOT
 62
     3
 10
290.50000000000011
 20
0.0
 30
0.0
 40
30.000000000000011
 50
174.2680320348023
 51
185.73196796519761
  0
ARC
  5
A8
  8
1
 62
     7
 10
289.0
 20
0.6999999999999959
 30
0.0
 40
11.30000000000001
 50
302.69357725726979
 51
237.30642274273021
  0
ARC
  5
A9
  8
1
 62
     7
 10
0.0
 20
0.0
 30
0.0
 40
56.000000000000007
 50
91.882914512785675
 51
88.117085487214325
  0
ARC
  5
AA
  8
1
 62
     7
 10
0.0
 20
0.6999999999999887
 30
0.0
 40
11.300000000000001
 50
302.69357725726979
 51
237.30642274273021
  0
ARC
  5
AB
  8
1
 62
     7
 10
-4.0
 20
-27.400000000000009
 30
0.0
 40
2.7999999999999972
 50
180.0
 51
270.0
  0
ARC
  5
AC
  8
1
 62
     7
 10
-9.7999999999999972
 20
-27.24836278441639
 30
0.0
 40
3.0
 50
0.0
 51
70.8671758033137
  0
ARC
  5
AD
  8
1
 62
     7
 10
0.0
 20
1.0
 30
0.0
 40
26.90000000000002
 50
289.13282419668678
 51
250.8671758033131
  0
ARC
  5
AE
  8
1
 62
     7
 10
4.0
 20
-27.400000000000009
 30
0.0
 40
2.7999999999999901
 50
270.0
 51
0.0
  0
ARC
  5
AF
  8
1
 62
     7
 10
9.7999999999999972
 20
-27.24836278441639
 30
0.0
 40
2.999999999999988
 50
109.1328241966869
 51
180.0
  0
ARC
  5
B0
  8
1
 62
     7
 10
286.19999999999999
 20
-11.167948635501681
 30
0.0
 40
2.1999999999999891
 50
180.0
 51
270.0
  0
ARC
  5
B1
  8
1
 62
     7
 10
281.60000000000008
 20
-10.829527310345391
 30
0.0
 40
2.4000000000000341
 50
0.0
 51
57.30642274272995
  0
ARC
  5
B2
  8
1
 62
     7
 10
296.39999999999998
 20
-10.829527310345391
 30
0.0
 40
2.3999999999999808
 50
122.6935772572692
 51
180.0
  0
ARC
  5
B3
  8
1
 62
     7
 10
291.80000000000013
 20
-11.167948635501681
 30
0.0
 40
2.2000000000000011
 50
270.0
 51
0.0
  0
ARC
  5
B4
  8
1
 62
     7
 10
-2.7999999999999972
 20
-11.167948635501681
 30
0.0
 40
2.200000000000002
 50
180.0
 51
270.0
  0
ARC
  5
B5
  8
1
 62
     7
 10
-7.3999999999999977
 20
-10.829527310345391
 30
0.0
 40
2.399999999999999
 50
0.0
 51
57.306422742730312
  0
ARC
  5
B6
  8
1
 62
     7
 10
7.3999999999999977
 20
-10.829527310345391
 30
0.0
 40
2.3999999999999959
 50
122.69357725726969
 51
180.0
  0
ARC
  5
B7
  8
1
 62
     7
 10
2.7999999999999972
 20
-11.167948635501681
 30
0.0
 40
2.2000000000000011
 50
270.0
 51
0.0
  0
CIRCLE
  5
B8
  8
1
 62
     7
 10
35.35533905932725
 20
-35.355339059327378
 30
0.0
 40
2.75
  0
CIRCLE
  5
B9
  8
1
 62
     7
 10
-35.355339059327399
 20
-35.355339059327321
 30
0.0
 40
2.75
  0
CIRCLE
  5
BA
  8
1
 62
     7
 10
-35.355339059327321
 20
35.355339059327349
 30
0.0
 40
2.75
  0
CIRCLE
  5
BB
  8
1
 62
     7
 10
35.35533905932725
 20
35.35533905932725
 30
0.0
 40
2.75
  0
CIRCLE
  5
BC
  8
1
 62
     7
 10
289.0
 20
0.0
 30
0.0
 40
10.0
  0
CIRCLE
  5
BD
  8
1
 62
     3
 10
100.0000000000001
 20
-0.0000000000000142
 30
0.0
 40
2.0
  0
CIRCLE
  5
BE
  8
1
 62
     7
 10
100.0000000000001
 20
-0.0000000000000142
 30
0.0
 40
1.6209999999999949
  0
CIRCLE
  5
BF
  8
1
 62
     3
 10
189.0
 20
-0.0000000000000142
 30
0.0
 40
2.0
  0
CIRCLE
  5
C0
  8
1
 62
     7
 10
189.0
 20
-0.0000000000000142
 30
0.0
 40
1.62099999999998
  0
CIRCLE
  5
C1
  8
1
 62
     7
 10
289.0
 20
0.0
 30
0.0
 40
56.0
  0
CIRCLE
  5
C2
  8
1
 62
     7
 10
289.0
 20
0.0
 30
0.0
 40
6.0
  0
CIRCLE
  5
C3
  8
1
 62
     7
 10
253.64466094067271
 20
35.355339059327349
 30
0.0
 40
2.75
  0
CIRCLE
  5
C4
  8
1
 62
     7
 10
0.0
 20
0.0
 30
0.0
 40
6.0
  0
CIRCLE
  5
C5
  8
1
 62
     7
 10
289.0
 20
0.0
 30
0.0
 40
21.0
  0
CIRCLE
  5
C6
  8
1
 62
     7
 10
289.0
 20
0.0
 30
0.0
 40
43.0
  0
CIRCLE
  5
C7
  8
1
 62
     3
 10
289.0
 20
29.999999999999989
 30
0.0
 40
2.0
  0
CIRCLE
  5
C8
  8
1
 62
     3
 10
289.0
 20
-29.999999999999989
 30
0.0
 40
2.0
  0
CIRCLE
  5
C9
  8
1
 62
     3
 10
320.46929824561408
 20
0.0
 30
0.0
 40
2.0
  0
CIRCLE
  5
CA
  8
1
 62
     7
 10
0.0
 20
0.0
 30
0.0
 40
25.0
  0
CIRCLE
  5
CB
  8
1
 62
     7
 10
0.0
 20
0.0
 30
0.0
 40
43.0
  0
CIRCLE
  5
CC
  8
1
 62
     7
 10
0.0
 20
0.0
 30
0.0
 40
21.0
  0
CIRCLE
  5
CD
  8
1
 62
     7
 10
289.0
 20
29.999999999999989
 30
0.0
 40
1.62099999999998
  0
CIRCLE
  5
CE
  8
1
 62
     7
 10
289.0
 20
-29.999999999999989
 30
0.0
 40
1.621000000000095
  0
CIRCLE
  5
CF
  8
1
 62
     7
 10
320.46929824561408
 20
0.0
 30
0.0
 40
1.6209999999999241
  0
CIRCLE
  5
D0
  8
1
 62
     3
 10
260.5
 20
0.0000000000000014
 30
0.0
 40
2.0000000000001141
  0
CIRCLE
  5
D1
  8
1
 62
     7
 10
260.5
 20
0.0000000000000014
 30
0.0
 40
1.6210000000002081
  0
CIRCLE
  5
D2
  8
1
 62
     7
 10
289.0
 20
0.0
 30
0.0
 40
35.0
  0
CIRCLE
  5
D3
  8
1
 62
     7
 10
0.0
 20
0.0
 30
0.0
 40
40.0
  0
CIRCLE
  5
D4
  8
1
 62
     7
 10
286.53073133065942
 20
-11.70534423212456
 30
0.0
 40
1.0
  0
CIRCLE
  5
D5
  8
1
 62
     7
 10
291.46926866934058
 20
-11.70534423212456
 30
0.0
 40
1.0
  0
CIRCLE
  5
D6
  8
1
 62
     7
 10
289.0
 20
0.0
 30
0.0
 40
40.0
  0
CIRCLE
  5
D7
  8
1
 62
     7
 10
0.0
 20
0.0
 30
0.0
 40
10.0
  0
CIRCLE
  5
D8
  8
1
 62
     7
 10
-2.4692686693405639
 20
-11.70534423212456
 30
0.0
 40
1.0
  0
CIRCLE
  5
D9
  8
1
 62
     7
 10
2.4692686693405639
 20
-11.70534423212456
 30
0.0
 40
1.0
  0
CIRCLE
  5
DA
  8
1
 62
     7
 10
-4.0
 20
-28.019854693699191
 30
0.0
 40
1.25
  0
CIRCLE
  5
DB
  8
1
 62
     7
 10
4.0
 20
-28.019854693699191
 30
0.0
 40
1.25
  0
CIRCLE
  5
DC
  8
1
 62
     7
 10
253.64466094067271
 20
-35.355339059327321
 30
0.0
 40
2.7499999999999711
  0
CIRCLE
  5
DD
  8
1
 62
     7
 10
324.35533905932732
 20
-35.355339059327378
 30
0.0
 40
2.75
  0
CIRCLE
  5
DE
  8
1
 62
     7
 10
324.35533905932732
 20
35.35533905932725
 30
0.0
 40
2.75
  0
TEXT
  5
E0
  8
1
 62
     7
 10
-57.791657056364407
 20
84.329717457114
 30
0.0
 40
5.5
  1
OPC 40
 41
0.9
  7
SIMPLEX
 72
     1
 11
-44.002371342078703
 21
84.329717457114
 31
0.0
  0
ENDSEC
  0
EOF
