  0
SECTION
  2
HEADER
  9
$ACADVER
  1
AC1009
  9
$INSBASE
 10
0.0
 20
0.0
 30
0.0
  9
$EXTMIN
 10
-42.008603005512491
 20
-35.000000000000028
 30
0.0
  9
$EXTMAX
 10
257.99953715978512
 20
65.373631477986208
 30
0.0
  9
$LIMMIN
 10
-42.278785605507103
 20
-35.000000000000028
  9
$LIMMAX
 10
257.99953715978501
 20
65.373631477986208
  9
$ORTHOMODE
 70
     0
  9
$REGENMODE
 70
     1
  9
$FILLMODE
 70
     1
  9
$QTEXTMODE
 70
     0
  9
$MIRRTEXT
 70
     1
  9
$DRAGMODE
 70
     2
  9
$LTSCALE
 40
1.0
  9
$OSMODE
 70
    37
  9
$ATTMODE
 70
     1
  9
$TEXTSIZE
 40
3.5
  9
$TRACEWID
 40
0.5
  9
$TEXTSTYLE
  7
STANDARD
  9
$CLAYER
  8
0
  9
$CELTYPE
  6
BYLAYER
  9
$CECOLOR
 62
   256
  9
$DIMSCALE
 40
1.0
  9
$DIMASZ
 40
0.18
  9
$DIMEXO
 40
0.0625
  9
$DIMDLI
 40
0.38
  9
$DIMRND
 40
0.0
  9
$DIMDLE
 40
0.0
  9
$DIMEXE
 40
0.18
  9
$DIMTP
 40
0.0
  9
$DIMTM
 40
0.0
  9
$DIMTXT
 40
0.18
  9
$DIMCEN
 40
0.09
  9
$DIMTSZ
 40
0.0
  9
$DIMTOL
 70
     0
  9
$DIMLIM
 70
     0
  9
$DIMTIH
 70
     1
  9
$DIMTOH
 70
     1
  9
$DIMSE1
 70
     0
  9
$DIMSE2
 70
     0
  9
$DIMTAD
 70
     0
  9
$DIMZIN
 70
     0
  9
$DIMBLK
  1

  9
$DIMASO
 70
     1
  9
$DIMSHO
 70
     1
  9
$DIMPOST
  1

  9
$DIMAPOST
  1

  9
$DIMALT
 70
     0
  9
$DIMALTD
 70
     2
  9
$DIMALTF
 40
25.399999999999999
  9
$DIMLFAC
 40
1.0
  9
$DIMTOFL
 70
     0
  9
$DIMTVP
 40
0.0
  9
$DIMTIX
 70
     0
  9
$DIMSOXD
 70
     0
  9
$DIMSAH
 70
     0
  9
$DIMBLK1
  1

  9
$DIMBLK2
  1

  9
$DIMSTYLE
  2
STANDARD
  9
$DIMCLRD
 70
     0
  9
$DIMCLRE
 70
     0
  9
$DIMCLRT
 70
     0
  9
$DIMTFAC
 40
1.0
  9
$DIMGAP
 40
0.09
  9
$LUNITS
 70
     2
  9
$LUPREC
 70
     4
  9
$SKETCHINC
 40
0.1
  9
$FILLETRAD
 40
2.0
  9
$AUNITS
 70
     0
  9
$AUPREC
 70
     0
  9
$MENU
  1
ACAD
  9
$ELEVATION
 40
0.0
  9
$PELEVATION
 40
0.0
  9
$THICKNESS
 40
0.0
  9
$LIMCHECK
 70
     0
  9
$BLIPMODE
 70
     0
  9
$CHAMFERA
 40
0.0
  9
$CHAMFERB
 40
0.0
  9
$SKPOLY
 70
     0
  9
$TDCREATE
 40
2452095.1127688652
  9
$TDUPDATE
 40
2452095.113423611
  9
$TDINDWG
 40
0.0006758102
  9
$TDUSRTIMER
 40
0.0006758102
  9
$USRTIMER
 70
     1
  9
$ANGBASE
 50
0.0
  9
$ANGDIR
 70
     0
  9
$PDMODE
 70
     0
  9
$PDSIZE
 40
0.0
  9
$PLINEWID
 40
0.0
  9
$COORDS
 70
     1
  9
$SPLFRAME
 70
     0
  9
$SPLINETYPE
 70
     6
  9
$SPLINESEGS
 70
     8
  9
$ATTDIA
 70
     0
  9
$ATTREQ
 70
     1
  9
$HANDLING
 70
 10241
  9
$HANDSEED
  5
FA
  9
$SURFTAB1
 70
     6
  9
$SURFTAB2
 70
     6
  9
$SURFTYPE
 70
     6
  9
$SURFU
 70
     6
  9
$SURFV
 70
     6
  9
$UCSNAME
  2

  9
$UCSORG
 10
0.0
 20
0.0
 30
0.0
  9
$UCSXDIR
 10
1.0
 20
0.0
 30
0.0
  9
$UCSYDIR
 10
0.0
 20
1.0
 30
0.0
  9
$PUCSNAME
  2

  9
$PUCSORG
 10
0.0
 20
0.0
 30
0.0
  9
$PUCSXDIR
 10
1.0
 20
0.0
 30
0.0
  9
$PUCSYDIR
 10
0.0
 20
1.0
 30
0.0
  9
$USERI1
 70
     0
  9
$USERI2
 70
     0
  9
$USERI3
 70
     0
  9
$USERI4
 70
     0
  9
$USERI5
 70
     0
  9
$USERR1
 40
0.0
  9
$USERR2
 40
0.0
  9
$USERR3
 40
0.0
  9
$USERR4
 40
0.0
  9
$USERR5
 40
0.0
  9
$WORLDVIEW
 70
     1
  9
$SHADEDGE
 70
     3
  9
$SHADEDIF
 70
    70
  9
$TILEMODE
 70
     1
  9
$MAXACTVP
 70
    64
  9
$PLIMCHECK
 70
     0
  9
$PEXTMIN
 10
1.0000000000000000E+020
 20
1.0000000000000000E+020
 30
1.0000000000000000E+020
  9
$PEXTMAX
 10
-1.0000000000000000E+020
 20
-1.0000000000000000E+020
 30
-1.0000000000000000E+020
  9
$PLIMMIN
 10
0.0
 20
0.0
  9
$PLIMMAX
 10
12.0
 20
9.0
  9
$UNITMODE
 70
     0
  9
$VISRETAIN
 70
     1
  9
$PLINEGEN
 70
     0
  9
$PSLTSCALE
 70
     1
  0
ENDSEC
  0
SECTION
  2
TABLES
  0
TABLE
  2
VPORT
 70
     2
  0
VPORT
  2
*ACTIVE
 70
     0
 10
0.0
 20
0.0
 11
1.0
 21
1.0
 12
-31.386528356497561
 22
61.115783907301342
 13
0.0
 23
0.0
 14
1.0
 24
1.0
 15
0.0
 25
0.0
 16
0.0
 26
0.0
 36
1.0
 17
0.0
 27
0.0
 37
0.0
 40
9.0000000090288381
 41
2.4144144144144142
 42
50.0
 43
0.0
 44
0.0
 50
0.0
 51
0.0
 71
     0
 72
   100
 73
     1
 74
     1
 75
     0
 76
     0
 77
     0
 78
     0
  0
ENDTAB
  0
TABLE
  2
LTYPE
 70
     9
  0
LTYPE
  2
CONTINUOUS
 70
     0
  3
Solid line
 72
    65
 73
     0
 40
0.0
  0
LTYPE
  2
BORDER
 70
     0
  3
__ __ . __ __ .
 72
    65
 73
     6
 40
13.828606969454251
 49
3.9510305627012121
 49
-1.9755152813506061
 49
3.9510305627012121
 49
-1.9755152813506061
 49
0.0
 49
-1.9755152813506061
  0
LTYPE
  2
CENTER
 70
     0
  3
____ _ ____ _
 72
    65
 73
     4
 40
15.80412225080484
 49
9.8775764067530343
 49
-1.9755152813506061
 49
1.9755152813506061
 49
-1.9755152813506061
  0
LTYPE
  2
DASHDOT
 70
     0
  3
__ . __ . __ .
 72
    65
 73
     4
 40
7.9020611254024269
 49
3.9510305627012121
 49
-1.9755152813506061
 49
0.0
 49
-1.9755152813506061
  0
LTYPE
  2
DASHED
 70
     0
  3
__ __ __ __ __
 72
    65
 73
     2
 40
5.9265458440518204
 49
3.9510305627012121
 49
-1.9755152813506061
  0
LTYPE
  2
DIVIDE
 70
     0
  3
__ . . __ . . 
 72
    65
 73
     6
 40
9.8775764067530343
 49
3.9510305627012121
 49
-1.9755152813506061
 49
0.0
 49
-1.9755152813506061
 49
0.0
 49
-1.9755152813506061
  0
LTYPE
  2
DOT
 70
     0
  3
..............
 72
    65
 73
     4
 40
3.9510305627012121
 49
0.0
 49
-1.9755152813506061
 49
0.0
 49
-1.9755152813506061
  0
LTYPE
  2
HIDDEN
 70
     0
  3
_ _ _ _ _ _ _
 72
    65
 73
     2
 40
2.9632729220259102
 49
1.9755152813506061
 49
-0.9877576406753034
  0
LTYPE
  2
PHANTOM
 70
     0
  3
_____ _ _ _____ _ _ 
 72
    65
 73
     6
 40
19.755152813506061
 49
9.8775764067530343
 49
-1.9755152813506061
 49
1.9755152813506061
 49
-1.9755152813506061
 49
1.9755152813506061
 49
-1.9755152813506061
  0
ENDTAB
  0
TABLE
  2
LAYER
 70
     2
  0
LAYER
  2
0
 70
     0
 62
     7
  6
CONTINUOUS
  0
LAYER
  2
1
 70
     0
 62
     7
  6
CONTINUOUS
  0
ENDTAB
  0
TABLE
  2
STYLE
 70
     4
  0
STYLE
  2
STANDARD
 70
     0
 40
0.0
 41
1.0
 50
0.0
 71
     0
 42
3.5
  3
txt
  4

  0
STYLE
  2
SIMPLEX
 70
     0
 40
0.0
 41
1.0
 50
0.0
 71
     0
 42
3.5
  3
simplex
  4

  0
STYLE
  2
COMPLEX
 70
     0
 40
0.0
 41
1.0
 50
0.0
 71
     0
 42
3.5
  3
complex
  4

  0
STYLE
  2
ITALIC
 70
     0
 40
0.0
 41
1.0
 50
0.0
 71
     0
 42
3.5
  3
italic
  4

  0
ENDTAB
  0
TABLE
  2
VIEW
 70
     0
  0
ENDTAB
  0
TABLE
  2
UCS
 70
     0
  0
ENDTAB
  0
TABLE
  2
APPID
 70
     1
  0
APPID
  2
ACAD
 70
     0
  0
ENDTAB
  0
TABLE
  2
DIMSTYLE
 70
     1
  0
DIMSTYLE
  2
STANDARD
 70
     0
  3

  4

  5

  6

  7

 40
1.0
 41
0.18
 42
0.0625
 43
0.38
 44
0.18
 45
0.0
 46
0.0
 47
0.0
 48
0.0
140
0.18
141
0.09
142
0.0
143
25.399999999999999
144
1.0
145
0.0
146
1.0
147
0.09
 71
     0
 72
     0
 73
     1
 74
     1
 75
     0
 76
     0
 77
     0
 78
     0
170
     0
171
     2
172
     0
173
     0
174
     0
175
     0
176
     0
177
     0
178
     0
  0
ENDTAB
  0
ENDSEC
  0
SECTION
  2
BLOCKS
  0
BLOCK
  8
0
  2
$MODEL_SPACE
 70
     0
 10
0.0
 20
0.0
 30
0.0
  3
$MODEL_SPACE
  1

  0
ENDBLK
  5
20
  8
0
  0
BLOCK
 67
     1
  8
0
  2
$PAPER_SPACE
 70
     0
 10
0.0
 20
0.0
 30
0.0
  3
$PAPER_SPACE
  1

  0
ENDBLK
  5
1C
 67
     1
  8
0
  0
ENDSEC
  0
SECTION
  2
ENTITIES
  0
LINE
  5
33
  8
1
 62
     7
 10
114.5
 20
25.669972906560979
 30
0.0
 11
114.5
 21
25.0
 31
0.0
  0
LINE
  5
34
  8
1
 62
     7
 10
109.4999999999999
 20
25.669972906560979
 30
0.0
 11
114.5
 21
25.669972906560979
 31
0.0
  0
LINE
  5
35
  8
1
 62
     7
 10
109.4999999999999
 20
25.669972906560979
 30
0.0
 11
109.4999999999999
 21
25.0
 31
0.0
  0
LINE
  5
36
  8
1
 62
     7
 10
224.8395371597851
 20
50.0
 30
0.0
 11
224.8395371597851
 21
34.951600821707721
 31
0.0
  0
LINE
  5
37
  8
1
 62
     7
 10
125.0
 20
25.0
 30
0.0
 11
133.49999999999989
 21
25.0
 31
0.0
  0
LINE
  5
38
  8
1
 62
     7
 10
125.0
 20
35.0
 30
0.0
 11
125.0
 21
-35.0
 31
0.0
  0
LINE
  5
39
  8
1
 62
     7
 10
121.0
 20
35.0
 30
0.0
 11
125.0
 21
35.0
 31
0.0
  0
LINE
  5
3A
  8
1
 62
     7
 10
121.0
 20
35.0
 30
0.0
 11
121.0
 21
-35.0
 31
0.0
  0
LINE
  5
3B
  8
1
 62
     7
 10
86.499999999999943
 20
25.0
 30
0.0
 11
121.0
 21
25.0
 31
0.0
  0
LINE
  5
3C
  8
1
 62
     7
 10
121.0
 20
-25.0
 30
0.0
 11
86.499999999999943
 21
-25.0
 31
0.0
  0
LINE
  5
3D
  8
1
 62
     7
 10
125.0
 20
-35.0
 30
0.0
 11
121.0
 21
-35.0
 31
0.0
  0
LINE
  5
3E
  8
1
 62
     7
 10
133.49999999999989
 20
-25.0
 30
0.0
 11
125.0
 21
-25.0
 31
0.0
  0
LINE
  5
3F
  8
1
 62
     7
 10
83.999999999999929
 20
-12.5
 30
0.0
 11
83.999999999999929
 21
12.5
 31
0.0
  0
LINE
  5
40
  8
1
 62
     7
 10
85.29999999999994
 20
-12.5
 30
0.0
 11
83.999999999999929
 21
-12.5
 31
0.0
  0
LINE
  5
41
  8
1
 62
     7
 10
83.999999999999929
 20
12.5
 30
0.0
 11
85.29999999999994
 21
12.5
 31
0.0
  0
LINE
  5
42
  8
1
 62
     3
 10
82.000000000000014
 20
1.5
 30
0.0
 11
72.999999999999986
 21
-1.5
 31
0.0
  0
LINE
  5
43
  8
1
 62
     3
 10
72.999999999999986
 20
1.5
 30
0.0
 11
82.000000000000014
 21
-1.5
 31
0.0
  0
LINE
  5
44
  8
1
 62
     7
 10
82.000000000000014
 20
-1.5
 30
0.0
 11
72.999999999999986
 21
-1.5
 31
0.0
  0
LINE
  5
45
  8
1
 62
     7
 10
82.000000000000014
 20
1.5
 30
0.0
 11
82.000000000000014
 21
-1.5
 31
0.0
  0
LINE
  5
46
  8
1
 62
     7
 10
72.999999999999986
 20
1.5
 30
0.0
 11
82.000000000000014
 21
1.5
 31
0.0
  0
LINE
  5
47
  8
1
 62
     3
 10
150.0
 20
1.5
 30
0.0
 11
141.0
 21
-1.5
 31
0.0
  0
LINE
  5
48
  8
1
 62
     3
 10
141.0
 20
1.5
 30
0.0
 11
150.0
 21
-1.5
 31
0.0
  0
LINE
  5
49
  8
1
 62
     7
 10
141.0
 20
-1.5
 30
0.0
 11
150.0
 21
-1.5
 31
0.0
  0
LINE
  5
4A
  8
1
 62
     7
 10
141.0
 20
1.5
 30
0.0
 11
141.0
 21
-1.5
 31
0.0
  0
LINE
  5
4B
  8
1
 62
     7
 10
150.0
 20
1.5
 30
0.0
 11
141.0
 21
1.5
 31
0.0
  0
LINE
  5
4C
  8
1
 62
     7
 10
150.0
 20
-2.5
 30
0.0
 11
139.5
 21
-2.5
 31
0.0
  0
LINE
  5
4D
  8
1
 62
     7
 10
150.0
 20
2.0
 30
0.0
 11
150.0
 21
-2.5
 31
0.0
  0
LINE
  5
4E
  8
1
 62
     7
 10
141.0
 20
2.0
 30
0.0
 11
150.0
 21
2.0
 31
0.0
  0
LINE
  5
4F
  8
1
 62
     7
 10
141.0
 20
2.5
 30
0.0
 11
141.0
 21
2.0
 31
0.0
  0
LINE
  5
50
  8
1
 62
     7
 10
139.5
 20
2.5
 30
0.0
 11
141.0
 21
2.5
 31
0.0
  0
LINE
  5
51
  8
1
 62
     7
 10
83.500000000000014
 20
-2.5
 30
0.0
 11
73.0
 21
-2.5
 31
0.0
  0
LINE
  5
52
  8
1
 62
     7
 10
82.000000000000014
 20
2.5
 30
0.0
 11
83.500000000000014
 21
2.5
 31
0.0
  0
LINE
  5
53
  8
1
 62
     7
 10
82.000000000000014
 20
2.0
 30
0.0
 11
82.000000000000014
 21
2.5
 31
0.0
  0
LINE
  5
54
  8
1
 62
     7
 10
73.0
 20
2.0
 30
0.0
 11
82.000000000000014
 21
2.0
 31
0.0
  0
LINE
  5
55
  8
1
 62
     7
 10
73.0
 20
-2.5
 30
0.0
 11
73.0
 21
2.0
 31
0.0
  0
LINE
  5
56
  8
1
 62
     7
 10
134.0
 20
-20.0
 30
0.0
 11
139.0
 21
-20.0
 31
0.0
  0
LINE
  5
57
  8
1
 62
     7
 10
133.49999999999989
 20
-18.0
 30
0.0
 11
134.0
 21
-18.0
 31
0.0
  0
LINE
  5
58
  8
1
  6
DASHDOT
 62
     3
 10
70.0
 20
0.0
 30
0.0
 11
73.0
 21
0.0
 31
0.0
  0
LINE
  5
59
  8
1
 62
     7
 10
134.0
 20
18.0
 30
0.0
 11
133.49999999999989
 21
18.0
 31
0.0
  0
LINE
  5
5A
  8
1
 62
     7
 10
134.0
 20
20.0
 30
0.0
 11
134.0
 21
18.0
 31
0.0
  0
LINE
  5
5B
  8
1
 62
     7
 10
139.0
 20
20.0
 30
0.0
 11
134.0
 21
20.0
 31
0.0
  0
LINE
  5
5C
  8
1
 62
     7
 10
139.0
 20
3.6250000000000169
 30
0.0
 11
139.5
 21
3.6250000000000169
 31
0.0
  0
LINE
  5
5D
  8
1
 62
     7
 10
139.5
 20
3.6250000000000169
 30
0.0
 11
139.5
 21
-4.97171499166065
 31
0.0
  0
LINE
  5
5E
  8
1
 62
     7
 10
139.5
 20
-4.97171499166065
 30
0.0
 11
139.0
 21
-4.9717149916606509
 31
0.0
  0
LINE
  5
5F
  8
1
 62
     7
 10
83.999999999999929
 20
3.6250000000000169
 30
0.0
 11
83.500000000000014
 21
3.6250000000000169
 31
0.0
  0
LINE
  5
60
  8
1
 62
     7
 10
83.500000000000014
 20
3.6250000000000169
 30
0.0
 11
83.500000000000014
 21
-4.97171499166065
 31
0.0
  0
LINE
  5
61
  8
1
 62
     7
 10
83.500000000000014
 20
-4.97171499166065
 30
0.0
 11
83.999999999999929
 21
-4.97171499166065
 31
0.0
  0
LINE
  5
62
  8
1
 62
     7
 10
86.499999999999943
 20
14.599999999999991
 30
0.0
 11
85.29999999999994
 21
14.599999999999991
 31
0.0
  0
LINE
  5
63
  8
1
 62
     7
 10
85.29999999999994
 20
14.599999999999991
 30
0.0
 11
85.29999999999994
 21
-17.156163069544359
 31
0.0
  0
LINE
  5
64
  8
1
 62
     7
 10
85.29999999999994
 20
-17.156163069544359
 30
0.0
 11
86.499999999999943
 21
-17.156163069544359
 31
0.0
  0
LINE
  5
65
  8
1
 62
     7
 10
86.499999999999943
 20
25.0
 30
0.0
 11
86.499999999999943
 21
-25.0
 31
0.0
  0
LINE
  5
66
  8
1
 62
     3
 10
224.30953715978501
 20
50.0
 30
0.0
 11
224.30953715978501
 21
55.0
 31
0.0
  0
LINE
  5
67
  8
1
 62
     3
 10
223.52953715978501
 20
55.0
 30
0.0
 11
223.52953715978501
 21
50.0
 31
0.0
  0
LINE
  5
68
  8
1
 62
     7
 10
139.0
 20
20.0
 30
0.0
 11
139.0
 21
-20.0
 31
0.0
  0
LINE
  5
69
  8
1
  6
DASHDOT
 62
     3
 10
222.99953715978501
 20
18.0
 30
0.0
 11
222.99953715978501
 21
12.0
 31
0.0
  0
LINE
  5
6A
  8
1
  6
DASHDOT
 62
     3
 10
207.4110798916652
 20
-8.9999999999999911
 30
0.0
 11
212.6072323143718
 21
-5.9999999999999929
 31
0.0
  0
LINE
  5
6B
  8
1
  6
DASHDOT
 62
     3
 10
238.58799442790499
 20
-8.9999999999999982
 30
0.0
 11
233.3918420051983
 21
-5.9999999999999929
 31
0.0
  0
LINE
  5
6C
  8
1
 62
     7
 10
221.49953715978501
 20
2.0
 30
0.0
 11
224.49953715978509
 21
2.0
 31
0.0
  0
LINE
  5
6D
  8
1
 62
     7
 10
220.99953715978501
 20
-1.499999999999992
 30
0.0
 11
220.99953715978501
 21
1.500000000000006
 31
0.0
  0
LINE
  5
6E
  8
1
 62
     3
 10
221.6895371597852
 20
55.0
 30
0.0
 11
221.6895371597852
 21
50.0
 31
0.0
  0
LINE
  5
6F
  8
1
 62
     7
 10
221.15953715978509
 20
50.0
 30
0.0
 11
221.15953715978509
 21
34.951600821707721
 31
0.0
  0
LINE
  5
70
  8
1
 62
     7
 10
222.99953715978501
 20
50.0
 30
0.0
 11
222.99953715978501
 21
35.0
 31
0.0
  0
LINE
  5
71
  8
1
 62
     7
 10
225.24953715978489
 20
-3.7217149916606509
 30
0.0
 11
225.24953715978489
 21
-2.9098061649411422
 31
0.0
  0
LINE
  5
72
  8
1
 62
     7
 10
223.37453715978501
 20
-4.9717149916606509
 30
0.0
 11
223.99953715978509
 21
-4.9717149916606509
 31
0.0
  0
LINE
  5
73
  8
1
 62
     7
 10
223.37453715978501
 20
-4.9717149916606509
 30
0.0
 11
223.37453715978501
 21
-4.22171499166065
 31
0.0
  0
LINE
  5
74
  8
1
 62
     7
 10
223.37453715978501
 20
-4.22171499166065
 30
0.0
 11
223.93703715978501
 21
-4.22171499166065
 31
0.0
  0
LINE
  5
75
  8
1
 62
     7
 10
223.93703715978501
 20
-2.8467149916606469
 30
0.0
 11
223.37453715978501
 21
-2.8467149916606469
 31
0.0
  0
LINE
  5
76
  8
1
 62
     7
 10
223.37453715978501
 20
-2.8467149916606469
 30
0.0
 11
223.37453715978501
 21
-2.4717149916606478
 31
0.0
  0
LINE
  5
77
  8
1
 62
     7
 10
222.62453715978509
 20
-2.4717149916606478
 30
0.0
 11
222.62453715978509
 21
-2.8467149916606469
 31
0.0
  0
LINE
  5
78
  8
1
 62
     7
 10
222.62453715978509
 20
-2.8467149916606469
 30
0.0
 11
222.06203715978501
 21
-2.8467149916606469
 31
0.0
  0
LINE
  5
79
  8
1
 62
     7
 10
222.06203715978501
 20
-4.22171499166065
 30
0.0
 11
222.62453715978509
 21
-4.22171499166065
 31
0.0
  0
LINE
  5
7A
  8
1
 62
     7
 10
222.62453715978509
 20
-4.22171499166065
 30
0.0
 11
222.62453715978509
 21
-4.9717149916606509
 31
0.0
  0
LINE
  5
7B
  8
1
 62
     7
 10
221.99953715978509
 20
-4.9717149916606509
 30
0.0
 11
222.62453715978509
 21
-4.9717149916606509
 31
0.0
  0
LINE
  5
7C
  8
1
 62
     7
 10
220.74953715978501
 20
-2.9098061649411422
 30
0.0
 11
220.74953715978501
 21
-3.7217149916606509
 31
0.0
  0
LINE
  5
7D
  8
1
 62
     7
 10
112.9199999999999
 20
25.669972906560979
 30
0.0
 11
112.9199999999999
 21
50.0
 31
0.0
  0
LINE
  5
7E
  8
1
 62
     7
 10
111.08
 20
25.669972906560979
 30
0.0
 11
111.0799999999999
 21
50.0
 31
0.0
  0
LINE
  5
7F
  8
1
 62
     7
 10
133.49999999999989
 20
25.0
 30
0.0
 11
133.49999999999989
 21
-25.0
 31
0.0
  0
LINE
  5
80
  8
1
 62
     7
 10
134.0
 20
18.0
 30
0.0
 11
134.0
 21
-20.0
 31
0.0
  0
LINE
  5
81
  8
1
  6
DASHDOT
 62
     3
 10
150.0
 20
0.0
 30
0.0
 11
153.0
 21
0.0
 31
0.0
  0
LINE
  5
82
  8
1
  6
DASHDOT
 62
     3
 10
221.49953715978501
 20
0.0
 30
0.0
 11
224.49953715978509
 21
0.0
 31
0.0
  0
LINE
  5
83
  8
1
  6
DASHDOT
 62
     3
 10
222.99953715978501
 20
1.5
 30
0.0
 11
222.99953715978501
 21
-1.5
 31
0.0
  0
LINE
  5
84
  8
1
 62
     7
 10
221.15953715978509
 20
50.0
 30
0.0
 11
224.8395371597851
 21
50.0
 31
0.0
  0
LINE
  5
85
  8
1
 62
     3
 10
222.46953715978501
 20
55.0
 30
0.0
 11
222.46953715978501
 21
50.0
 31
0.0
  0
LINE
  5
86
  8
1
  6
DASHDOT
 62
     3
 10
246.51083763423779
 20
23.51130047445271
 30
0.0
 11
241.91464355652511
 21
18.91510639674015
 31
0.0
  0
LINE
  5
87
  8
1
  6
DASHDOT
 62
     3
 10
199.4882366853324
 20
23.51130047445271
 30
0.0
 11
204.08443076304479
 21
18.915106396740171
 31
0.0
  0
LINE
  5
88
  8
1
  6
DASHDOT
 62
     3
 10
199.4882366853324
 20
-23.511300474452689
 30
0.0
 11
204.08443076304479
 21
-18.915106396740129
 31
0.0
  0
LINE
  5
89
  8
1
  6
DASHDOT
 62
     3
 10
246.51083763423779
 20
-23.511300474452689
 30
0.0
 11
241.91464355652511
 21
-18.91510639674015
 31
0.0
  0
LINE
  5
8A
  8
1
 62
     7
 10
112.9199999999999
 20
50.0
 30
0.0
 11
111.0799999999999
 21
50.0
 31
0.0
  0
LINE
  5
8B
  8
1
 62
     3
 10
112.39
 20
55.0
 30
0.0
 11
112.39
 21
50.0
 31
0.0
  0
LINE
  5
8C
  8
1
 62
     3
 10
111.61
 20
55.0
 30
0.0
 11
111.61
 21
50.0
 31
0.0
  0
LINE
  5
8D
  8
1
 62
     7
 10
1.8400000000000001
 20
50.0
 30
0.0
 11
1.8400000000000001
 21
25.669972906560979
 31
0.0
  0
LINE
  5
8E
  8
1
 62
     3
 10
1.3100000000000001
 20
50.0
 30
0.0
 11
1.3100000000000001
 21
55.0
 31
0.0
  0
LINE
  5
8F
  8
1
 62
     3
 10
0.5299999999999999
 20
55.0
 30
0.0
 11
0.5299999999999999
 21
50.0
 31
0.0
  0
LINE
  5
90
  8
1
 62
     7
 10
-1.5
 20
2.0
 30
0.0
 11
1.5
 21
2.0
 31
0.0
  0
LINE
  5
91
  8
1
 62
     7
 10
2.0
 20
1.500000000000006
 30
0.0
 11
2.0
 21
-1.499999999999992
 31
0.0
  0
LINE
  5
92
  8
1
 62
     3
 10
-1.3100000000000041
 20
55.0
 30
0.0
 11
-1.3100000000000001
 21
50.0
 31
0.0
  0
LINE
  5
93
  8
1
 62
     7
 10
-1.8400000000000001
 20
50.0
 30
0.0
 11
-1.8400000000000001
 21
25.669972906560979
 31
0.0
  0
LINE
  5
94
  8
1
 62
     7
 10
0.0
 20
50.0
 30
0.0
 11
0.0
 21
25.669972906560979
 31
0.0
  0
LINE
  5
95
  8
1
 62
     7
 10
2.2499999999999498
 20
-3.7217149916606509
 30
0.0
 11
2.2499999999999498
 21
-2.9098061649411422
 31
0.0
  0
LINE
  5
96
  8
1
 62
     7
 10
0.3749999999999503
 20
-4.9717149916606509
 30
0.0
 11
0.9999999999999504
 21
-4.9717149916606509
 31
0.0
  0
LINE
  5
97
  8
1
 62
     7
 10
0.3749999999999503
 20
-4.9717149916606509
 30
0.0
 11
0.3749999999999503
 21
-4.22171499166065
 31
0.0
  0
LINE
  5
98
  8
1
 62
     7
 10
0.3749999999999503
 20
-4.22171499166065
 30
0.0
 11
0.9375
 21
-4.22171499166065
 31
0.0
  0
LINE
  5
99
  8
1
 62
     7
 10
0.9375
 20
-2.8467149916606469
 30
0.0
 11
0.3749999999999503
 21
-2.8467149916606469
 31
0.0
  0
LINE
  5
9A
  8
1
 62
     7
 10
0.3749999999999503
 20
-2.8467149916606469
 30
0.0
 11
0.3749999999999503
 21
-2.4717149916606478
 31
0.0
  0
LINE
  5
9B
  8
1
 62
     7
 10
-0.375
 20
-2.4717149916606478
 30
0.0
 11
-0.375
 21
-2.8467149916606469
 31
0.0
  0
LINE
  5
9C
  8
1
 62
     7
 10
-0.375
 20
-2.8467149916606469
 30
0.0
 11
-0.9375
 21
-2.8467149916606469
 31
0.0
  0
LINE
  5
9D
  8
1
 62
     7
 10
-0.9375
 20
-4.22171499166065
 30
0.0
 11
-0.375
 21
-4.22171499166065
 31
0.0
  0
LINE
  5
9E
  8
1
 62
     7
 10
-0.375
 20
-4.22171499166065
 30
0.0
 11
-0.375
 21
-4.9717149916606509
 31
0.0
  0
LINE
  5
9F
  8
1
 62
     7
 10
-1.0000000000000491
 20
-4.9717149916606509
 30
0.0
 11
-0.375
 21
-4.9717149916606509
 31
0.0
  0
LINE
  5
A0
  8
1
 62
     7
 10
-2.25
 20
-2.9098061649411422
 30
0.0
 11
-2.25
 21
-3.7217149916606509
 31
0.0
  0
LINE
  5
A1
  8
1
  6
DASHDOT
 62
     3
 10
-1.5
 20
0.0
 30
0.0
 11
1.5
 21
0.0
 31
0.0
  0
LINE
  5
A2
  8
1
  6
DASHDOT
 62
     3
 10
0.0
 20
1.5
 30
0.0
 11
0.0
 21
-1.499999999999992
 31
0.0
  0
LINE
  5
A3
  8
1
 62
     7
 10
-1.8400000000000001
 20
50.0
 30
0.0
 11
1.8400000000000001
 21
50.0
 31
0.0
  0
LINE
  5
A4
  8
1
 62
     3
 10
-0.5299999999999999
 20
55.0
 30
0.0
 11
-0.5299999999999999
 21
50.0
 31
0.0
  0
LINE
  5
A5
  8
1
  6
DASHDOT
 62
     3
 10
23.511300474452689
 20
23.51130047445271
 30
0.0
 11
18.91510639674016
 21
18.91510639674015
 31
0.0
  0
LINE
  5
A6
  8
1
  6
DASHDOT
 62
     3
 10
-23.511300474452689
 20
23.51130047445271
 30
0.0
 11
-18.91510639674015
 21
18.915106396740171
 31
0.0
  0
LINE
  5
A7
  8
1
  6
DASHDOT
 62
     3
 10
-23.511300474452689
 20
-23.511300474452689
 30
0.0
 11
-18.91510639674015
 21
-18.915106396740129
 31
0.0
  0
LINE
  5
A8
  8
1
  6
DASHDOT
 62
     3
 10
23.511300474452671
 20
-23.511300474452689
 30
0.0
 11
18.915106396740121
 21
-18.91510639674015
 31
0.0
  0
LINE
  5
A9
  8
1
 62
     7
 10
-2.5
 20
25.669972906560979
 30
0.0
 11
2.5
 21
25.669972906560979
 31
0.0
  0
LINE
  5
AA
  8
1
 62
     7
 10
2.5
 20
25.669972906560979
 30
0.0
 11
2.5
 21
24.874685927665499
 31
0.0
  0
LINE
  5
AB
  8
1
 62
     7
 10
-2.5
 20
25.669972906560979
 30
0.0
 11
-2.5
 21
24.874685927665499
 31
0.0
  0
LINE
  5
AC
  8
1
 62
     7
 10
5.5999999999999943
 20
-13.77497826085313
 30
0.0
 11
5.5999999999999943
 21
-14.856163069544371
 31
0.0
  0
LINE
  5
AD
  8
1
 62
     7
 10
0.7999999999999972
 20
-17.156163069544359
 30
0.0
 11
3.2999999999999972
 21
-17.156163069544359
 31
0.0
  0
LINE
  5
AE
  8
1
 62
     7
 10
0.7999999999999972
 20
-17.156163069544359
 30
0.0
 11
0.7999999999999972
 21
-12.474373731775071
 31
0.0
  0
LINE
  5
AF
  8
1
 62
     7
 10
-0.7999999999999972
 20
-12.474373731775071
 30
0.0
 11
-0.7999999999999972
 21
-17.156163069544359
 31
0.0
  0
LINE
  5
B0
  8
1
 62
     7
 10
-3.2999999999999972
 20
-17.156163069544359
 30
0.0
 11
-0.7999999999999972
 21
-17.156163069544359
 31
0.0
  0
LINE
  5
B1
  8
1
 62
     7
 10
-5.5999999999999943
 20
-14.856163069544371
 30
0.0
 11
-5.5999999999999943
 21
-13.77497826085313
 31
0.0
  0
LINE
  5
B2
  8
1
 62
     3
 10
223.91953715978499
 20
50.0
 30
0.0
 11
223.91953715978499
 21
55.0
 31
0.0
  0
LINE
  5
B3
  8
1
 62
     3
 10
222.0795371597851
 20
55.0
 30
0.0
 11
222.0795371597851
 21
50.0
 31
0.0
  0
LINE
  5
B4
  8
1
 62
     3
 10
112.0
 20
55.0
 30
0.0
 11
112.0
 21
50.0
 31
0.0
  0
LINE
  5
B5
  8
1
 62
     3
 10
-0.9200000000000148
 20
55.0
 30
0.0
 11
-0.9200000000000148
 21
50.0
 31
0.0
  0
LINE
  5
B6
  8
1
 62
     3
 10
0.9199999999999851
 20
50.0
 30
0.0
 11
0.9199999999999851
 21
55.0
 31
0.0
  0
ARC
  5
B7
  8
1
 62
     7
 10
223.99953715978509
 20
-3.7217149916606509
 30
0.0
 40
1.25
 50
270.0
 51
0.0
  0
ARC
  5
B8
  8
1
 62
     7
 10
226.87453715978501
 20
-2.9098061649411422
 30
0.0
 40
1.625000000000006
 50
140.80503257401699
 51
180.0
  0
ARC
  5
B9
  8
1
 62
     7
 10
219.12453715978509
 20
-2.9098061649411422
 30
0.0
 40
1.625
 50
0.0
 51
39.19496742598551
  0
ARC
  5
BA
  8
1
 62
     7
 10
221.99953715978509
 20
-3.7217149916606509
 30
0.0
 40
1.25
 50
180.0
 51
270.0
  0
ARC
  5
BB
  8
1
 62
     7
 10
0.9999999999999504
 20
-3.7217149916606509
 30
0.0
 40
1.25
 50
270.0
 51
0.0
  0
ARC
  5
BC
  8
1
 62
     7
 10
3.8749999999999489
 20
-2.9098061649411422
 30
0.0
 40
1.624999999999986
 50
140.80503257401659
 51
180.0
  0
ARC
  5
BD
  8
1
 62
     7
 10
-3.875
 20
-2.9098061649411422
 30
0.0
 40
1.625
 50
0.0
 51
39.194967425983457
  0
ARC
  5
BE
  8
1
 62
     7
 10
-1.0000000000000491
 20
-3.7217149916606509
 30
0.0
 40
1.24999999999995
 50
180.0
 51
270.0
  0
ARC
  5
BF
  8
1
 62
     7
 10
8.0999999999999943
 20
-13.77497826085313
 30
0.0
 40
2.4999999999999969
 50
119.4003510102127
 51
180.0
  0
ARC
  5
C0
  8
1
 62
     7
 10
3.2999999999999972
 20
-14.856163069544371
 30
0.0
 40
2.299999999999998
 50
270.0
 51
0.0
  0
ARC
  5
C1
  8
1
 62
     7
 10
-3.2999999999999972
 20
-14.856163069544371
 30
0.0
 40
2.2999999999999972
 50
180.0
 51
270.0
  0
ARC
  5
C2
  8
1
 62
     7
 10
-8.0999999999999943
 20
-13.77497826085313
 30
0.0
 40
2.5
 50
0.0
 51
60.599648989787163
  0
ARC
  5
C3
  8
1
 62
     7
 10
0.0
 20
0.0
 30
0.0
 40
35.0
 50
93.013510169319005
 51
86.986489830680981
  0
ARC
  5
C4
  8
1
 62
     7
 10
223.93703715978501
 20
-3.5342149916606491
 30
0.0
 40
0.6875000000000009
 50
270.0
 51
90.0
  0
ARC
  5
C5
  8
1
 62
     7
 10
222.06203715978501
 20
-3.5342149916606491
 30
0.0
 40
0.6875000000000014
 50
90.0
 51
270.0
  0
ARC
  5
C6
  8
1
 62
     7
 10
222.99953715978501
 20
0.25
 30
0.0
 40
3.3749999999999329
 50
320.80503257401602
 51
219.19496742598179
  0
ARC
  5
C7
  8
1
  6
DASHDOT
 62
     3
 10
222.99953715978501
 20
0.0
 30
0.0
 40
15.0
 50
78.521659045466208
 51
101.47834095453371
  0
ARC
  5
C8
  8
1
  6
DASHDOT
 62
     3
 10
222.99953715978501
 20
0.0
 30
0.0
 40
15.0
 50
318.52165904546632
 51
341.47834095453362
  0
ARC
  5
C9
  8
1
  6
DASHDOT
 62
     3
 10
222.99953715978501
 20
0.0
 30
0.0
 40
15.000000000000011
 50
198.52165904546641
 51
221.47834095453391
  0
ARC
  5
CA
  8
1
  6
DASHDOT
 62
     3
 10
222.99953715978501
 20
0.0
 30
0.0
 40
29.999999999999979
 50
38.789917932238801
 51
51.210082067761071
  0
ARC
  5
CB
  8
1
  6
DASHDOT
 62
     3
 10
222.99953715978501
 20
0.0
 30
0.0
 40
30.00000000000005
 50
128.78991793223869
 51
141.21008206776131
  0
ARC
  5
CC
  8
1
  6
DASHDOT
 62
     3
 10
222.99953715978501
 20
0.0
 30
0.0
 40
30.000000000000028
 50
218.78991793223861
 51
231.21008206776099
  0
ARC
  5
CD
  8
1
  6
DASHDOT
 62
     3
 10
222.99953715978501
 20
0.0
 30
0.0
 40
30.000000000000089
 50
308.78991793223872
 51
321.21008206776122
  0
ARC
  5
CE
  8
1
 62
     7
 10
0.9375
 20
-3.5342149916606491
 30
0.0
 40
0.6875000000000009
 50
270.0
 51
90.0
  0
ARC
  5
CF
  8
1
 62
     7
 10
-0.9375
 20
-3.5342149916606491
 30
0.0
 40
0.6875000000000014
 50
90.0
 51
270.0
  0
ARC
  5
D0
  8
1
 62
     7
 10
0.0
 20
0.25
 30
0.0
 40
3.3749999999999791
 50
320.80503257401659
 51
219.19496742598281
  0
ARC
  5
D1
  8
1
  6
DASHDOT
 62
     3
 10
0.0
 20
0.0
 30
0.0
 40
30.000000000000011
 50
38.78991793223873
 51
51.210082067761228
  0
ARC
  5
D2
  8
1
  6
DASHDOT
 62
     3
 10
0.0
 20
0.0
 30
0.0
 40
30.000000000000028
 50
128.78991793223869
 51
141.21008206776111
  0
ARC
  5
D3
  8
1
  6
DASHDOT
 62
     3
 10
0.0
 20
0.0
 30
0.0
 40
30.000000000000011
 50
218.78991793223861
 51
231.21008206776131
  0
ARC
  5
D4
  8
1
  6
DASHDOT
 62
     3
 10
0.0
 20
0.0
 30
0.0
 40
30.0
 50
308.78991793223861
 51
321.21008206776122
  0
ARC
  5
D5
  8
1
 62
     7
 10
0.0
 20
0.6000000000000015
 30
0.0
 40
14.0
 50
299.4003510102126
 51
240.5996489897872
  0
CIRCLE
  5
D6
  8
1
 62
     7
 10
222.99953715978501
 20
0.0
 30
0.0
 40
20.0
  0
CIRCLE
  5
D7
  8
1
 62
     7
 10
222.99953715978501
 20
0.0
 30
0.0
 40
23.5
  0
CIRCLE
  5
D8
  8
1
 62
     7
 10
222.99953715978501
 20
0.0
 30
0.0
 40
25.0
  0
CIRCLE
  5
D9
  8
1
 62
     7
 10
222.99953715978501
 20
0.0
 30
0.0
 40
35.000000000000028
  0
CIRCLE
  5
DA
  8
1
 62
     7
 10
244.21274059538149
 20
21.213203435596409
 30
0.0
 40
2.25
  0
CIRCLE
  5
DB
  8
1
 62
     7
 10
201.78633372418869
 20
21.213203435596441
 30
0.0
 40
2.25
  0
CIRCLE
  5
DC
  8
1
 62
     7
 10
201.78633372418849
 20
-21.21320343559637
 30
0.0
 40
2.25
  0
CIRCLE
  5
DD
  8
1
 62
     7
 10
244.21274059538149
 20
-21.213203435596409
 30
0.0
 40
2.25
  0
CIRCLE
  5
DE
  8
1
 62
     3
 10
222.99953715978501
 20
15.0
 30
0.0
 40
2.0
  0
CIRCLE
  5
DF
  8
1
 62
     3
 10
210.0091561030184
 20
-7.499999999999992
 30
0.0
 40
2.0
  0
CIRCLE
  5
E0
  8
1
 62
     3
 10
235.9899182165515
 20
-7.4999999999999956
 30
0.0
 40
2.0
  0
CIRCLE
  5
E1
  8
1
 62
     7
 10
222.99953715978501
 20
0.0
 30
0.0
 40
2.5
  0
CIRCLE
  5
E2
  8
1
 62
     7
 10
0.0
 20
0.0
 30
0.0
 40
9.4999999999999964
  0
CIRCLE
  5
E3
  8
1
 62
     7
 10
0.0
 20
0.0
 30
0.0
 40
23.5
  0
CIRCLE
  5
E4
  8
1
 62
     7
 10
0.0
 20
0.0
 30
0.0
 40
25.0
  0
CIRCLE
  5
E5
  8
1
 62
     7
 10
21.21320343559643
 20
21.213203435596409
 30
0.0
 40
2.25
  0
CIRCLE
  5
E6
  8
1
 62
     7
 10
-21.21320343559637
 20
21.213203435596441
 30
0.0
 40
2.25
  0
CIRCLE
  5
E7
  8
1
 62
     7
 10
-21.213203435596409
 20
-21.21320343559637
 30
0.0
 40
2.25
  0
CIRCLE
  5
E8
  8
1
 62
     7
 10
21.21320343559643
 20
-21.213203435596409
 30
0.0
 40
2.25
  0
CIRCLE
  5
E9
  8
1
 62
     7
 10
0.0
 20
0.0
 30
0.0
 40
2.5
  0
CIRCLE
  5
EA
  8
1
 62
     7
 10
0.0
 20
0.0
 30
0.0
 40
12.5
  0
CIRCLE
  5
EB
  8
1
 62
     7
 10
222.99953715978501
 20
0.0
 30
0.0
 40
9.5
  0
CIRCLE
  5
EC
  8
1
 62
     7
 10
222.99953715978501
 20
15.0
 30
0.0
 40
1.621000000000008
  0
CIRCLE
  5
ED
  8
1
 62
     7
 10
210.0091561030184
 20
-7.499999999999992
 30
0.0
 40
1.62099999999998
  0
CIRCLE
  5
EE
  8
1
 62
     7
 10
235.9899182165515
 20
-7.4999999999999956
 30
0.0
 40
1.6209999999999241
  0
CIRCLE
  5
EF
  8
1
 62
     7
 10
2.8658033573141628
 20
-15.08805755395684
 30
0.0
 40
1.0
  0
CIRCLE
  5
F0
  8
1
 62
     7
 10
-2.8658033573141628
 20
-15.08805755395684
 30
0.0
 40
1.0
  0
TEXT
  5
F2
  8
1
 62
     7
 10
-42.008603005512498
 20
61.873631477986201
 30
0.0
 40
3.5
  1
OPC 5
 41
0.9
  7
SIMPLEX
 72
     1
 11
-34.733603005512499
 21
61.873631477986201
 31
0.0
  0
ENDSEC
  0
EOF
